ISO-10303-21;
HEADER;
FILE_DESCRIPTION (( 'STEP AP203' ),
    '1' );
FILE_NAME ('62855.step',
    '2021-10-15T09:34:05',
    ( '' ),
    ( '' ),
    'SwSTEP 2.0',
    'SolidWorks 2019',
    '' );
FILE_SCHEMA (( 'CONFIG_CONTROL_DESIGN' ));
ENDSEC;

DATA;
#1 = FACE_OUTER_BOUND ( 'NONE', #237, .T. ) ;
#2 = EDGE_CURVE ( 'NONE', #224, #224, #105, .T. ) ;
#3 =( NAMED_UNIT ( * ) SI_UNIT ( $, .STERADIAN. ) SOLID_ANGLE_UNIT ( ) );
#4 = VERTEX_POINT ( 'NONE', #140 ) ;
#5 = FACE_OUTER_BOUND ( 'NONE', #223, .T. ) ;
#6 = CALENDAR_DATE ( 2021, 15, 10 ) ;
#7 = LOCAL_TIME ( 11, 34, 5.000000000000000000, #107 ) ;
#8 = PERSON_AND_ORGANIZATION ( #77, #80 ) ;
#9 = AXIS2_PLACEMENT_3D ( 'NONE', #138, #225, #45 ) ;
#10 = ADVANCED_FACE ( 'NONE', ( #1, #84 ), #159, .T. ) ;
#11 = PRODUCT_DEFINITION_FORMATION_WITH_SPECIFIED_SOURCE ( 'ANY', '', #149, .NOT_KNOWN. ) ;
#12 = CYLINDRICAL_SURFACE ( 'NONE', #193, 2.049999999999976286 ) ;
#13 = ORIENTED_EDGE ( 'NONE', *, *, #19, .F. ) ;
#14 = CC_DESIGN_PERSON_AND_ORGANIZATION_ASSIGNMENT ( #212, #232, ( #149 ) ) ;
#15 = AXIS2_PLACEMENT_3D ( 'NONE', #64, #24, #181 ) ;
#16 = DIRECTION ( 'NONE',  ( -3.491481338843133355E-15, 1.224646799147353207E-16, -1.000000000000000000 ) ) ;
#17 = CARTESIAN_POINT ( 'NONE',  ( 1.047444401652940007E-13, 2.249639673992777927E-32, 30.00000000000000000 ) ) ;
#18 = AXIS2_PLACEMENT_3D ( 'NONE', #46, #67, #230 ) ;
#19 = EDGE_CURVE ( 'NONE', #4, #4, #146, .T. ) ;
#20 = DIRECTION ( 'NONE',  ( -3.491481338843133355E-15, 1.224646799147353207E-16, -1.000000000000000000 ) ) ;
#21 =( LENGTH_UNIT ( ) NAMED_UNIT ( * ) SI_UNIT ( .MILLI., .METRE. ) );
#22 = CC_DESIGN_SECURITY_CLASSIFICATION ( #47, ( #11 ) ) ;
#23 = DIRECTION ( 'NONE',  ( 3.491481338843133355E-15, 1.224646799147354045E-15, 1.000000000000000000 ) ) ;
#24 = DIRECTION ( 'NONE',  ( -3.491481338843133355E-15, -1.224646799147354045E-15, -1.000000000000000000 ) ) ;
#25 = VERTEX_POINT ( 'NONE', #244 ) ;
#26 = CARTESIAN_POINT ( 'NONE',  ( 1.244554174395940321E-13, -2.999999999999954259, 35.64544826719053106 ) ) ;
#27 = APPLICATION_CONTEXT ( 'configuration controlled 3d designs of mechanical parts and assemblies' ) ;
#28 = PERSON_AND_ORGANIZATION ( #77, #80 ) ;
#29 = COORDINATED_UNIVERSAL_TIME_OFFSET ( 1, 0, .AHEAD. ) ;
#30 = EDGE_CURVE ( 'NONE', #226, #226, #183, .T. ) ;
#31 = DATE_AND_TIME ( #6, #7 ) ;
#32 = CIRCLE ( 'NONE', #141, 2.049999999999976286 ) ;
#33 = COORDINATED_UNIVERSAL_TIME_OFFSET ( 1, 0, .AHEAD. ) ;
#34 = DIRECTION ( 'NONE',  ( -4.321598899600629766E-30, 1.000000000000000000, -1.216421949617883860E-15 ) ) ;
#35 = EDGE_LOOP ( 'NONE', ( #60 ) ) ;
#36 = AXIS2_PLACEMENT_3D ( 'NONE', #207, #161, #88 ) ;
#37 = APPROVAL_PERSON_ORGANIZATION ( #72, #188, #90 ) ;
#38 = EDGE_LOOP ( 'NONE', ( #215 ) ) ;
#39 = AXIS2_PLACEMENT_3D ( 'NONE', #59, #136, #93 ) ;
#40 = DIRECTION ( 'NONE',  ( -4.133703295270212504E-30, 1.000000000000000000, -1.269309860470849121E-15 ) ) ;
#41 = EDGE_CURVE ( 'NONE', #25, #25, #131, .T. ) ;
#42 = CIRCLE ( 'NONE', #18, 2.999999999999997780 ) ;
#43 = DIRECTION ( 'NONE',  ( -3.491481338843133355E-15, 1.224646799147353207E-16, -1.000000000000000000 ) ) ;
#44 = CARTESIAN_POINT ( 'NONE',  ( 2.304377683636468267E-13, -8.082668874372532400E-15, 66.00000000000000000 ) ) ;
#45 = DIRECTION ( 'NONE',  ( 4.275831445896958607E-31, 1.000000000000000000, 1.224646799147353454E-16 ) ) ;
#46 = CARTESIAN_POINT ( 'NONE',  ( 1.244554174395940069E-13, 4.365308412458748076E-14, 35.64544826719052395 ) ) ;
#47 = SECURITY_CLASSIFICATION ( '', '', #170 ) ;
#48 = CIRCLE ( 'NONE', #192, 2.300000000000000266 ) ;
#49 = CIRCLE ( 'NONE', #106, 3.000000000000000000 ) ;
#50 = VERTEX_POINT ( 'NONE', #98 ) ;
#51 = EDGE_LOOP ( 'NONE', ( #246 ) ) ;
#52 = EDGE_CURVE ( 'NONE', #115, #115, #48, .T. ) ;
#53 = COORDINATED_UNIVERSAL_TIME_OFFSET ( 1, 0, .AHEAD. ) ;
#54 = EDGE_LOOP ( 'NONE', ( #56 ) ) ;
#55 = MECHANICAL_CONTEXT ( 'NONE', #27, 'mechanical' ) ;
#56 = ORIENTED_EDGE ( 'NONE', *, *, #2, .F. ) ;
#57 = DIRECTION ( 'NONE',  ( 3.491481338843133355E-15, 1.224646799147354045E-15, 1.000000000000000000 ) ) ;
#58 = EDGE_LOOP ( 'NONE', ( #73 ) ) ;
#59 = CARTESIAN_POINT ( 'NONE',  ( 1.047444401652940007E-13, 3.673940397442062649E-14, 30.00000000000000000 ) ) ;
#60 = ORIENTED_EDGE ( 'NONE', *, *, #41, .T. ) ;
#61 = FACE_BOUND ( 'NONE', #137, .T. ) ;
#62 = ADVANCED_FACE ( 'NONE', ( #108, #197 ), #12, .T. ) ;
#63 = CONICAL_SURFACE ( 'NONE', #145, 2.049999999999998490, 1.082104136236485159 ) ;
#64 = CARTESIAN_POINT ( 'NONE',  ( 2.096812213377424981E-15, 7.354627209253749877E-16, 0.6005508865392309437 ) ) ;
#65 = ADVANCED_FACE ( 'NONE', ( #217 ), #172, .T. ) ;
#66 = CARTESIAN_POINT ( 'NONE',  ( 2.304377683636468267E-13, 1.724723750061123933E-32, 66.00000000000000000 ) ) ;
#67 = DIRECTION ( 'NONE',  ( 3.491481338843133355E-15, 1.224646799147354045E-15, 1.000000000000000000 ) ) ;
#68 = CARTESIAN_POINT ( 'NONE',  ( 1.187103655206665341E-13, 2.049999999999995381, 34.00000000000000000 ) ) ;
#69 = ADVANCED_FACE ( 'NONE', ( #61, #176 ), #179, .T. ) ;
#70 = APPROVAL_ROLE ( '' ) ;
#71 = CALENDAR_DATE ( 2021, 15, 10 ) ;
#72 = PERSON_AND_ORGANIZATION ( #77, #80 ) ;
#73 = ORIENTED_EDGE ( 'NONE', *, *, #103, .F. ) ;
#74 = PERSON_AND_ORGANIZATION ( #77, #80 ) ;
#75 = ORIENTED_EDGE ( 'NONE', *, *, #2, .T. ) ;
#76 = DATE_AND_TIME ( #121, #97 ) ;
#77 = PERSON ( 'UNSPECIFIED', 'UNSPECIFIED', 'UNSPECIFIED', ('UNSPECIFIED'), ('UNSPECIFIED'), ('UNSPECIFIED') ) ;
#78 = CARTESIAN_POINT ( 'NONE',  ( -3.491481338843130200E-15, -1.224646799147353059E-15, -0.9999999999999991118 ) ) ;
#79 = EDGE_LOOP ( 'NONE', ( #75 ) ) ;
#80 = ORGANIZATION ( 'UNSPECIFIED', 'UNSPECIFIED', '' ) ;
#81 = AXIS2_PLACEMENT_3D ( 'NONE', #82, #150, #111 ) ;
#82 = CARTESIAN_POINT ( 'NONE',  ( 1.047444401652940007E-13, 2.249639673992777927E-32, 30.00000000000000000 ) ) ;
#83 = FACE_OUTER_BOUND ( 'NONE', #258, .T. ) ;
#84 = FACE_OUTER_BOUND ( 'NONE', #198, .T. ) ;
#85 = FACE_OUTER_BOUND ( 'NONE', #35, .T. ) ;
#86 = VERTEX_POINT ( 'NONE', #184 ) ;
#87 = DIRECTION ( 'NONE',  ( 4.202028969572153373E-30, -1.000000000000000000, 1.248475228922702751E-15 ) ) ;
#88 = DIRECTION ( 'NONE',  ( 1.000000000000000000, 0.0000000000000000000, 0.0000000000000000000 ) ) ;
#89 = APPROVAL_PERSON_ORGANIZATION ( #28, #233, #214 ) ;
#90 = APPROVAL_ROLE ( '' ) ;
#91 = PERSON_AND_ORGANIZATION_ROLE ( 'classification_officer' ) ;
#92 = CARTESIAN_POINT ( 'NONE',  ( 2.839393636710598638E-15, 9.959252223496494875E-16, 0.8132346592038216526 ) ) ;
#93 = DIRECTION ( 'NONE',  ( 0.0000000000000000000, -1.000000000000000000, 0.0000000000000000000 ) ) ;
#94 = DIRECTION ( 'NONE',  ( 0.0000000000000000000, 1.000000000000000000, 0.0000000000000000000 ) ) ;
#95 = DIRECTION ( 'NONE',  ( -3.491481338843133355E-15, 1.224646799147353207E-16, -1.000000000000000000 ) ) ;
#96 = VERTEX_POINT ( 'NONE', #26 ) ;
#97 = LOCAL_TIME ( 11, 34, 5.000000000000000000, #29 ) ;
#98 = CARTESIAN_POINT ( 'NONE',  ( 2.279937314264566018E-13, 2.999999999999992450, 65.29999999999999716 ) ) ;
#99 = DIRECTION ( 'NONE',  ( 4.321598899600629766E-30, -1.000000000000000000, 1.216421949617883860E-15 ) ) ;
#100 = ADVANCED_FACE ( 'NONE', ( #240 ), #261, .F. ) ;
#101 = DIRECTION ( 'NONE',  ( 4.275831445896958607E-31, 1.000000000000000000, 1.224646799147353207E-16 ) ) ;
#102 = APPROVAL_STATUS ( 'not_yet_approved' ) ;
#103 = EDGE_CURVE ( 'NONE', #50, #50, #49, .T. ) ;
#104 = APPROVAL_DATE_TIME ( #31, #233 ) ;
#105 = CIRCLE ( 'NONE', #15, 1.649999999999999023 ) ;
#106 = AXIS2_PLACEMENT_3D ( 'NONE', #153, #263, #109 ) ;
#107 = COORDINATED_UNIVERSAL_TIME_OFFSET ( 1, 0, .AHEAD. ) ;
#108 = FACE_OUTER_BOUND ( 'NONE', #151, .T. ) ;
#109 = DIRECTION ( 'NONE',  ( 0.0000000000000000000, 1.000000000000000000, 0.0000000000000000000 ) ) ;
#110 = ORIENTED_EDGE ( 'NONE', *, *, #30, .T. ) ;
#111 = DIRECTION ( 'NONE',  ( -4.275831445896958607E-31, -1.000000000000000000, -1.224646799147353207E-16 ) ) ;
#112 = CARTESIAN_POINT ( 'NONE',  ( 2.304377683636468267E-13, -8.082668874372532400E-15, 66.00000000000000000 ) ) ;
#113 = DESIGN_CONTEXT ( 'detailed design', #173, 'design' ) ;
#114 = CARTESIAN_POINT ( 'NONE',  ( 2.096812213377424981E-15, 7.354627209253749877E-16, 0.6005508865392309437 ) ) ;
#115 = VERTEX_POINT ( 'NONE', #205 ) ;
#116 = APPROVAL_PERSON_ORGANIZATION ( #74, #167, #70 ) ;
#117 =( NAMED_UNIT ( * ) PLANE_ANGLE_UNIT ( ) SI_UNIT ( $, .RADIAN. ) );
#118 = AXIS2_PLACEMENT_3D ( 'NONE', #201, #57, #220 ) ;
#119 = FACE_OUTER_BOUND ( 'NONE', #79, .T. ) ;
#120 = DIRECTION ( 'NONE',  ( -4.133703295270212504E-30, 1.000000000000000000, -1.269309860470849121E-15 ) ) ;
#121 = CALENDAR_DATE ( 2021, 15, 10 ) ;
#122 = LOCAL_TIME ( 11, 34, 5.000000000000000000, #33 ) ;
#123 = AXIS2_PLACEMENT_3D ( 'NONE', #228, #142, #120 ) ;
#124 = CLOSED_SHELL ( 'NONE', ( #10, #229, #204, #62, #69, #100 ) ) ;
#125 = CALENDAR_DATE ( 2021, 15, 10 ) ;
#126 = ORIENTED_EDGE ( 'NONE', *, *, #41, .F. ) ;
#127 = DATE_AND_TIME ( #231, #227 ) ;
#128 = ORIENTED_EDGE ( 'NONE', *, *, #30, .F. ) ;
#129 = CC_DESIGN_PERSON_AND_ORGANIZATION_ASSIGNMENT ( #236, #254, ( #11 ) ) ;
#130 = APPLICATION_PROTOCOL_DEFINITION ( 'international standard', 'config_control_design', 1994, #173 ) ;
#131 = CIRCLE ( 'NONE', #164, 2.049999999999998490 ) ;
#132 = EDGE_LOOP ( 'NONE', ( #134 ) ) ;
#133 = ORIENTED_EDGE ( 'NONE', *, *, #255, .F. ) ;
#134 = ORIENTED_EDGE ( 'NONE', *, *, #156, .T. ) ;
#135 = DIRECTION ( 'NONE',  ( -3.491481338843133355E-15, -1.224646799147354045E-15, -1.000000000000000000 ) ) ;
#136 = DIRECTION ( 'NONE',  ( -3.491481338843133355E-15, 1.224646799147353207E-16, -1.000000000000000000 ) ) ;
#137 = EDGE_LOOP ( 'NONE', ( #128 ) ) ;
#138 = CARTESIAN_POINT ( 'NONE',  ( 0.0000000000000000000, 0.0000000000000000000, 0.0000000000000000000 ) ) ;
#139 = APPLICATION_PROTOCOL_DEFINITION ( 'international standard', 'config_control_design', 1994, #27 ) ;
#140 = CARTESIAN_POINT ( 'NONE',  ( 1.047444401652940007E-13, -2.049999999999939426, 30.00000000000000000 ) ) ;
#141 = AXIS2_PLACEMENT_3D ( 'NONE', #199, #16, #174 ) ;
#142 = DIRECTION ( 'NONE',  ( -3.491481338843133355E-15, -1.224646799147354045E-15, -1.000000000000000000 ) ) ;
#143 = APPROVAL_DATE_TIME ( #76, #167 ) ;
#144 =( GEOMETRIC_REPRESENTATION_CONTEXT ( 3 ) GLOBAL_UNCERTAINTY_ASSIGNED_CONTEXT ( ( #157 ) ) GLOBAL_UNIT_ASSIGNED_CONTEXT ( ( #21, #117, #3 ) ) REPRESENTATION_CONTEXT ( 'NONE', 'WORKASPACE' ) );
#145 = AXIS2_PLACEMENT_3D ( 'NONE', #248, #203, #99 ) ;
#146 = CIRCLE ( 'NONE', #39, 2.049999999999976286 ) ;
#147 = APPROVAL_STATUS ( 'not_yet_approved' ) ;
#148 = DATE_TIME_ROLE ( 'classification_date' ) ;
#149 = PRODUCT ( '62855', '62855', '', ( #55 ) ) ;
#150 = DIRECTION ( 'NONE',  ( 3.491481338843133355E-15, -1.224646799147353207E-16, 1.000000000000000000 ) ) ;
#151 = EDGE_LOOP ( 'NONE', ( #110 ) ) ;
#152 = ORIENTED_EDGE ( 'NONE', *, *, #255, .T. ) ;
#153 = CARTESIAN_POINT ( 'NONE',  ( 2.279937314264566018E-13, -7.996943598432214956E-15, 65.29999999999999716 ) ) ;
#154 = AXIS2_PLACEMENT_3D ( 'NONE', #242, #202, #222 ) ;
#155 = DIRECTION ( 'NONE',  ( -4.275831445896958607E-31, -1.000000000000000000, -1.224646799147353207E-16 ) ) ;
#156 = EDGE_CURVE ( 'NONE', #86, #86, #32, .T. ) ;
#157 = UNCERTAINTY_MEASURE_WITH_UNIT (LENGTH_MEASURE( 1.000000000000000082E-05 ), #21, 'distance_accuracy_value', 'NONE');
#158 = CARTESIAN_POINT ( 'NONE',  ( 2.096812213377417881E-15, 1.649999999999999689, 0.6005508865392289453 ) ) ;
#159 = CYLINDRICAL_SURFACE ( 'NONE', #9, 2.999999999999997780 ) ;
#160 = CC_DESIGN_PERSON_AND_ORGANIZATION_ASSIGNMENT ( #8, #91, ( #47 ) ) ;
#161 = DIRECTION ( 'NONE',  ( 0.0000000000000000000, 0.0000000000000000000, 1.000000000000000000 ) ) ;
#162 = CC_DESIGN_APPROVAL ( #188, ( #11 ) ) ;
#163 = FACE_BOUND ( 'NONE', #239, .T. ) ;
#164 = AXIS2_PLACEMENT_3D ( 'NONE', #92, #216, #34 ) ;
#165 = AXIS2_PLACEMENT_3D ( 'NONE', #114, #23, #87 ) ;
#166 = FACE_OUTER_BOUND ( 'NONE', #58, .T. ) ;
#167 = APPROVAL ( #238, 'UNSPECIFIED' ) ;
#168 = PRODUCT_DEFINITION_SHAPE ( 'NONE', 'NONE',  #196 ) ;
#169 = PERSON_AND_ORGANIZATION_ROLE ( 'creator' ) ;
#170 = SECURITY_CLASSIFICATION_LEVEL ( 'unclassified' ) ;
#171 = COORDINATED_UNIVERSAL_TIME_OFFSET ( 1, 0, .AHEAD. ) ;
#172 = PLANE ( 'NONE',  #81 ) ;
#173 = APPLICATION_CONTEXT ( 'configuration controlled 3d designs of mechanical parts and assemblies' ) ;
#174 = DIRECTION ( 'NONE',  ( 0.0000000000000000000, -1.000000000000000000, 0.0000000000000000000 ) ) ;
#175 = ORIENTED_EDGE ( 'NONE', *, *, #52, .T. ) ;
#176 = FACE_OUTER_BOUND ( 'NONE', #219, .T. ) ;
#177 = CC_DESIGN_PERSON_AND_ORGANIZATION_ASSIGNMENT ( #250, #209, ( #11 ) ) ;
#178 = DIRECTION ( 'NONE',  ( 3.491481338843133355E-15, -1.224646799147353207E-16, 1.000000000000000000 ) ) ;
#179 = CONICAL_SURFACE ( 'NONE', #118, 3.499999999999949818, 0.5235987755982962621 ) ;
#180 = CC_DESIGN_DATE_AND_TIME_ASSIGNMENT ( #194, #253, ( #196 ) ) ;
#181 = DIRECTION ( 'NONE',  ( -4.202028969572153373E-30, 1.000000000000000000, -1.248475228922702751E-15 ) ) ;
#182 = ADVANCED_BREP_SHAPE_REPRESENTATION ( '62855', ( #260, #259, #36 ), #144 ) ;
#183 = CIRCLE ( 'NONE', #154, 2.049999999999953637 ) ;
#184 = CARTESIAN_POINT ( 'NONE',  ( 1.047444401652940007E-13, -2.049999999999939426, 30.00000000000000000 ) ) ;
#185 = FACE_BOUND ( 'NONE', #54, .T. ) ;
#186 = LOCAL_TIME ( 11, 34, 5.000000000000000000, #53 ) ;
#187 = DIRECTION ( 'NONE',  ( 0.0000000000000000000, 1.000000000000000000, 0.0000000000000000000 ) ) ;
#188 = APPROVAL ( #102, 'UNSPECIFIED' ) ;
#189 = PERSON_AND_ORGANIZATION ( #77, #80 ) ;
#190 = PRODUCT_RELATED_PRODUCT_CATEGORY ( 'detail', '', ( #149 ) ) ;
#191 = ORIENTED_EDGE ( 'NONE', *, *, #103, .T. ) ;
#192 = AXIS2_PLACEMENT_3D ( 'NONE', #112, #95, #94 ) ;
#193 = AXIS2_PLACEMENT_3D ( 'NONE', #78, #135, #40 ) ;
#194 = DATE_AND_TIME ( #71, #122 ) ;
#195 = SHAPE_DEFINITION_REPRESENTATION ( #168, #182 ) ;
#196 = PRODUCT_DEFINITION ( 'UNKNOWN', '', #11, #113 ) ;
#197 = FACE_OUTER_BOUND ( 'NONE', #38, .T. ) ;
#198 = EDGE_LOOP ( 'NONE', ( #191 ) ) ;
#199 = CARTESIAN_POINT ( 'NONE',  ( 1.047444401652940007E-13, 3.673940397442062649E-14, 30.00000000000000000 ) ) ;
#200 = ADVANCED_FACE ( 'NONE', ( #257, #5 ), #206, .T. ) ;
#201 = CARTESIAN_POINT ( 'NONE',  ( 1.274791289758712083E-13, 4.471365936331229148E-14, 36.51147367097487972 ) ) ;
#202 = DIRECTION ( 'NONE',  ( -3.491481338843133355E-15, -1.224646799147354045E-15, -1.000000000000000000 ) ) ;
#203 = DIRECTION ( 'NONE',  ( 3.491481338843133355E-15, 1.224646799147354045E-15, 1.000000000000000000 ) ) ;
#204 = ADVANCED_FACE ( 'NONE', ( #83 ), #208, .F. ) ;
#205 = CARTESIAN_POINT ( 'NONE',  ( 2.304377683636468267E-13, 2.299999999999992273, 66.00000000000000000 ) ) ;
#206 = CYLINDRICAL_SURFACE ( 'NONE', #123, 2.049999999999976286 ) ;
#207 = CARTESIAN_POINT ( 'NONE',  ( 0.0000000000000000000, 0.0000000000000000000, 0.0000000000000000000 ) ) ;
#208 = PLANE ( 'NONE',  #249 ) ;
#209 = PERSON_AND_ORGANIZATION_ROLE ( 'creator' ) ;
#210 = ADVANCED_FACE ( 'NONE', ( #119 ), #234, .T. ) ;
#211 = APPROVAL_DATE_TIME ( #127, #188 ) ;
#212 = PERSON_AND_ORGANIZATION ( #77, #80 ) ;
#213 = EDGE_LOOP ( 'NONE', ( #13 ) ) ;
#214 = APPROVAL_ROLE ( '' ) ;
#215 = ORIENTED_EDGE ( 'NONE', *, *, #156, .F. ) ;
#216 = DIRECTION ( 'NONE',  ( -3.491481338843133355E-15, -1.224646799147354045E-15, -1.000000000000000000 ) ) ;
#217 = FACE_OUTER_BOUND ( 'NONE', #213, .T. ) ;
#218 = CONICAL_SURFACE ( 'NONE', #256, 2.300000000000000266, 0.7853981633974437271 ) ;
#219 = EDGE_LOOP ( 'NONE', ( #133 ) ) ;
#220 = DIRECTION ( 'NONE',  ( 7.043400939473420785E-30, -1.000000000000000000, 1.982541115402093706E-15 ) ) ;
#221 = CC_DESIGN_PERSON_AND_ORGANIZATION_ASSIGNMENT ( #189, #169, ( #196 ) ) ;
#222 = DIRECTION ( 'NONE',  ( 0.0000000000000000000, 1.000000000000000000, 0.0000000000000000000 ) ) ;
#223 = EDGE_LOOP ( 'NONE', ( #126 ) ) ;
#224 = VERTEX_POINT ( 'NONE', #158 ) ;
#225 = DIRECTION ( 'NONE',  ( -3.491481338843133355E-15, 1.224646799147353207E-16, -1.000000000000000000 ) ) ;
#226 = VERTEX_POINT ( 'NONE', #68 ) ;
#227 = LOCAL_TIME ( 11, 34, 5.000000000000000000, #171 ) ;
#228 = CARTESIAN_POINT ( 'NONE',  ( -3.491481338843130200E-15, -1.224646799147353059E-15, -0.9999999999999991118 ) ) ;
#229 = ADVANCED_FACE ( 'NONE', ( #166, #163 ), #218, .T. ) ;
#230 = DIRECTION ( 'NONE',  ( 8.217301096052212846E-30, -1.000000000000000000, 2.312964634635744633E-15 ) ) ;
#231 = CALENDAR_DATE ( 2021, 15, 10 ) ;
#232 = PERSON_AND_ORGANIZATION_ROLE ( 'design_owner' ) ;
#233 = APPROVAL ( #147, 'UNSPECIFIED' ) ;
#234 = CONICAL_SURFACE ( 'NONE', #165, 1.649999999999999023, 1.221730476396032161 ) ;
#235 = DATE_AND_TIME ( #125, #186 ) ;
#236 = PERSON_AND_ORGANIZATION ( #77, #80 ) ;
#237 = EDGE_LOOP ( 'NONE', ( #152 ) ) ;
#238 = APPROVAL_STATUS ( 'not_yet_approved' ) ;
#239 = EDGE_LOOP ( 'NONE', ( #175 ) ) ;
#240 = FACE_OUTER_BOUND ( 'NONE', #132, .T. ) ;
#241 = ORIENTED_EDGE ( 'NONE', *, *, #52, .F. ) ;
#242 = CARTESIAN_POINT ( 'NONE',  ( 1.187103655206665341E-13, 4.163799117101004504E-14, 34.00000000000000000 ) ) ;
#243 = CC_DESIGN_APPROVAL ( #233, ( #196 ) ) ;
#244 = CARTESIAN_POINT ( 'NONE',  ( 2.839393636710589566E-15, 2.049999999999999378, 0.8132346592038192101 ) ) ;
#245 = CLOSED_SHELL ( 'NONE', ( #65, #210, #251, #200 ) ) ;
#246 = ORIENTED_EDGE ( 'NONE', *, *, #19, .T. ) ;
#247 = CC_DESIGN_DATE_AND_TIME_ASSIGNMENT ( #235, #148, ( #47 ) ) ;
#248 = CARTESIAN_POINT ( 'NONE',  ( 2.839393636710598638E-15, 9.959252223496494875E-16, 0.8132346592038216526 ) ) ;
#249 = AXIS2_PLACEMENT_3D ( 'NONE', #66, #43, #101 ) ;
#250 = PERSON_AND_ORGANIZATION ( #77, #80 ) ;
#251 = ADVANCED_FACE ( 'NONE', ( #185, #85 ), #63, .T. ) ;
#252 = CC_DESIGN_APPROVAL ( #167, ( #47 ) ) ;
#253 = DATE_TIME_ROLE ( 'creation_date' ) ;
#254 = PERSON_AND_ORGANIZATION_ROLE ( 'design_supplier' ) ;
#255 = EDGE_CURVE ( 'NONE', #96, #96, #42, .T. ) ;
#256 = AXIS2_PLACEMENT_3D ( 'NONE', #44, #20, #187 ) ;
#257 = FACE_OUTER_BOUND ( 'NONE', #51, .T. ) ;
#258 = EDGE_LOOP ( 'NONE', ( #241 ) ) ;
#259 = MANIFOLD_SOLID_BREP ( 'Corps-Déplacer/Copier1[2]', #245 ) ;
#260 = MANIFOLD_SOLID_BREP ( 'Corps-Déplacer/Copier1[1]', #124 ) ;
#261 = PLANE ( 'NONE',  #262 ) ;
#262 = AXIS2_PLACEMENT_3D ( 'NONE', #17, #178, #155 ) ;
#263 = DIRECTION ( 'NONE',  ( -3.491481338843133355E-15, 1.224646799147353207E-16, -1.000000000000000000 ) ) ;
ENDSEC;
END-ISO-10303-21;
