ISO-10303-21;
HEADER;
FILE_DESCRIPTION (( 'STEP AP203' ),
    '1' );
FILE_NAME ('62854.step',
    '2021-10-15T09:34:05',
    ( '' ),
    ( '' ),
    'SwSTEP 2.0',
    'SolidWorks 2019',
    '' );
FILE_SCHEMA (( 'CONFIG_CONTROL_DESIGN' ));
ENDSEC;

DATA;
#1 = ADVANCED_FACE ( 'NONE', ( #198 ), #193, .T. ) ;
#2 = DIRECTION ( 'NONE',  ( -3.491481338843133355E-15, 1.224646799147353207E-16, -1.000000000000000000 ) ) ;
#3 = CONICAL_SURFACE ( 'NONE', #183, 1.500000000000000222, 0.7853981633974476129 ) ;
#4 = DIRECTION ( 'NONE',  ( 4.224620523172003418E-30, -1.000000000000000000, 1.259073490628328430E-15 ) ) ;
#5 = EDGE_LOOP ( 'NONE', ( #177 ) ) ;
#6 = DIRECTION ( 'NONE',  ( 6.162975822039163138E-30, -1.000000000000000000, 1.734723475976809461E-15 ) ) ;
#7 = CC_DESIGN_PERSON_AND_ORGANIZATION_ASSIGNMENT ( #191, #226, ( #33 ) ) ;
#8 = CIRCLE ( 'NONE', #162, 1.549999999999999156 ) ;
#9 = EDGE_LOOP ( 'NONE', ( #113 ) ) ;
#10 = CARTESIAN_POINT ( 'NONE',  ( 6.982962677686265448E-14, 2.449293598294707696E-14, 19.99999999999999645 ) ) ;
#11 = DIRECTION ( 'NONE',  ( -4.224620523172003418E-30, 1.000000000000000000, -1.259073490628328430E-15 ) ) ;
#12 = AXIS2_PLACEMENT_3D ( 'NONE', #50, #117, #262 ) ;
#13 = APPROVAL_DATE_TIME ( #184, #244 ) ;
#14 = CARTESIAN_POINT ( 'NONE',  ( 6.982962677686265448E-14, -1.949999999999957101, 19.99999999999999645 ) ) ;
#15 = AXIS2_PLACEMENT_3D ( 'NONE', #157, #112, #4 ) ;
#16 = CALENDAR_DATE ( 2021, 15, 10 ) ;
#17 = APPROVAL ( #41, 'UNSPECIFIED' ) ;
#18 = CONICAL_SURFACE ( 'NONE', #261, 2.499999999999961808, 0.5235987755982989267 ) ;
#19 = PERSON_AND_ORGANIZATION ( #216, #253 ) ;
#20 = DIRECTION ( 'NONE',  ( -3.491481338843133355E-15, 1.224646799147353207E-16, -1.000000000000000000 ) ) ;
#21 = DIRECTION ( 'NONE',  ( -3.491481338843133355E-15, -1.224646799147354045E-15, -1.000000000000000000 ) ) ;
#22 = DATE_AND_TIME ( #79, #159 ) ;
#23 = FACE_OUTER_BOUND ( 'NONE', #45, .T. ) ;
#24 = ORIENTED_EDGE ( 'NONE', *, *, #30, .T. ) ;
#25 = DIRECTION ( 'NONE',  ( 3.491481338843133355E-15, 1.224646799147354045E-15, 1.000000000000000000 ) ) ;
#26 = ORIENTED_EDGE ( 'NONE', *, *, #35, .T. ) ;
#27 = ADVANCED_FACE ( 'NONE', ( #23 ), #49, .T. ) ;
#28 = EDGE_LOOP ( 'NONE', ( #111 ) ) ;
#29 = ORIENTED_EDGE ( 'NONE', *, *, #68, .T. ) ;
#30 = EDGE_CURVE ( 'NONE', #122, #122, #123, .T. ) ;
#31 = CARTESIAN_POINT ( 'NONE',  ( 2.304377683636468267E-13, -8.082668874372532400E-15, 66.00000000000000000 ) ) ;
#32 = PERSON_AND_ORGANIZATION ( #216, #253 ) ;
#33 = SECURITY_CLASSIFICATION ( '', '', #150 ) ;
#34 = FACE_BOUND ( 'NONE', #115, .T. ) ;
#35 = EDGE_CURVE ( 'NONE', #166, #166, #99, .T. ) ;
#36 = CLOSED_SHELL ( 'NONE', ( #37, #178, #75, #130, #168, #126 ) ) ;
#37 = ADVANCED_FACE ( 'NONE', ( #161, #81 ), #155, .T. ) ;
#38 = DATE_AND_TIME ( #60, #128 ) ;
#39 = COORDINATED_UNIVERSAL_TIME_OFFSET ( 1, 0, .AHEAD. ) ;
#40 = AXIS2_PLACEMENT_3D ( 'NONE', #42, #139, #174 ) ;
#41 = APPROVAL_STATUS ( 'not_yet_approved' ) ;
#42 = CARTESIAN_POINT ( 'NONE',  ( 0.0000000000000000000, 0.0000000000000000000, 0.0000000000000000000 ) ) ;
#43 = FACE_OUTER_BOUND ( 'NONE', #158, .T. ) ;
#44 = MANIFOLD_SOLID_BREP ( 'Corps-Déplacer/Copier1[2]', #213 ) ;
#45 = EDGE_LOOP ( 'NONE', ( #136 ) ) ;
#46 = DIRECTION ( 'NONE',  ( 3.491481338843133355E-15, -1.224646799147353207E-16, 1.000000000000000000 ) ) ;
#47 = AXIS2_PLACEMENT_3D ( 'NONE', #97, #257, #146 ) ;
#48 = EDGE_LOOP ( 'NONE', ( #252 ) ) ;
#49 = CONICAL_SURFACE ( 'NONE', #15, 1.549999999999999156, 1.221730476396032161 ) ;
#50 = CARTESIAN_POINT ( 'NONE',  ( 6.982962677686266711E-14, 1.499759782661850218E-32, 20.00000000000000000 ) ) ;
#51 = FACE_OUTER_BOUND ( 'NONE', #137, .T. ) ;
#52 = ADVANCED_BREP_SHAPE_REPRESENTATION ( '62854', ( #231, #44, #47 ), #88 ) ;
#53 =( NAMED_UNIT ( * ) SI_UNIT ( $, .STERADIAN. ) SOLID_ANGLE_UNIT ( ) );
#54 = CC_DESIGN_SECURITY_CLASSIFICATION ( #33, ( #232 ) ) ;
#55 = CARTESIAN_POINT ( 'NONE',  ( 6.982962677686265448E-14, -1.949999999999957101, 19.99999999999999645 ) ) ;
#56 = CARTESIAN_POINT ( 'NONE',  ( 2.304377683636468267E-13, 1.499999999999992228, 66.00000000000000000 ) ) ;
#57 = ADVANCED_FACE ( 'NONE', ( #51, #129 ), #164, .T. ) ;
#58 = DIRECTION ( 'NONE',  ( -3.491481338843133355E-15, 1.224646799147353207E-16, -1.000000000000000000 ) ) ;
#59 = LOCAL_TIME ( 11, 34, 5.000000000000000000, #169 ) ;
#60 = CALENDAR_DATE ( 2021, 15, 10 ) ;
#61 = UNCERTAINTY_MEASURE_WITH_UNIT (LENGTH_MEASURE( 1.000000000000000082E-05 ), #205, 'distance_accuracy_value', 'NONE');
#62 = FACE_OUTER_BOUND ( 'NONE', #195, .T. ) ;
#63 = CIRCLE ( 'NONE', #206, 2.000000000000000000 ) ;
#64 = PERSON_AND_ORGANIZATION ( #216, #253 ) ;
#65 = DIRECTION ( 'NONE',  ( -3.491481338843133355E-15, -1.224646799147354045E-15, -1.000000000000000000 ) ) ;
#66 = EDGE_LOOP ( 'NONE', ( #85 ) ) ;
#67 = CARTESIAN_POINT ( 'NONE',  ( -3.491481338843130200E-15, -1.224646799147353059E-15, -0.9999999999999991118 ) ) ;
#68 = EDGE_CURVE ( 'NONE', #237, #237, #133, .T. ) ;
#69 = CARTESIAN_POINT ( 'NONE',  ( 2.286920276942252663E-13, -8.021436534415164826E-15, 65.50000000000000000 ) ) ;
#70 = MECHANICAL_CONTEXT ( 'NONE', #109, 'mechanical' ) ;
#71 = DIRECTION ( 'NONE',  ( 0.0000000000000000000, 1.000000000000000000, 0.0000000000000000000 ) ) ;
#72 = CC_DESIGN_PERSON_AND_ORGANIZATION_ASSIGNMENT ( #140, #124, ( #135 ) ) ;
#73 = CARTESIAN_POINT ( 'NONE',  ( 6.982962677686265448E-14, 2.449293598294707696E-14, 19.99999999999999645 ) ) ;
#74 = VERTEX_POINT ( 'NONE', #145 ) ;
#75 = ADVANCED_FACE ( 'NONE', ( #143 ), #248, .F. ) ;
#76 = COORDINATED_UNIVERSAL_TIME_OFFSET ( 1, 0, .AHEAD. ) ;
#77 = CARTESIAN_POINT ( 'NONE',  ( 2.286920276942252663E-13, 1.999999999999992228, 65.50000000000000000 ) ) ;
#78 = LOCAL_TIME ( 11, 34, 5.000000000000000000, #207 ) ;
#79 = CALENDAR_DATE ( 2021, 15, 10 ) ;
#80 = CYLINDRICAL_SURFACE ( 'NONE', #225, 1.949999999999981748 ) ;
#81 = FACE_OUTER_BOUND ( 'NONE', #9, .T. ) ;
#82 = AXIS2_PLACEMENT_3D ( 'NONE', #31, #236, #235 ) ;
#83 = EDGE_LOOP ( 'NONE', ( #26 ) ) ;
#84 = FACE_BOUND ( 'NONE', #5, .T. ) ;
#85 = ORIENTED_EDGE ( 'NONE', *, *, #89, .T. ) ;
#86 = DIRECTION ( 'NONE',  ( -4.275831445896958607E-31, -1.000000000000000000, -1.224646799147353207E-16 ) ) ;
#87 = EDGE_LOOP ( 'NONE', ( #229 ) ) ;
#88 =( GEOMETRIC_REPRESENTATION_CONTEXT ( 3 ) GLOBAL_UNCERTAINTY_ASSIGNED_CONTEXT ( ( #61 ) ) GLOBAL_UNIT_ASSIGNED_CONTEXT ( ( #205, #98, #53 ) ) REPRESENTATION_CONTEXT ( 'NONE', 'WORKASPACE' ) );
#89 = EDGE_CURVE ( 'NONE', #74, #74, #247, .T. ) ;
#90 = EDGE_LOOP ( 'NONE', ( #249 ) ) ;
#91 = DIRECTION ( 'NONE',  ( -6.321000843117195243E-30, 1.000000000000000000, -1.779203565104449471E-15 ) ) ;
#92 = AXIS2_PLACEMENT_3D ( 'NONE', #10, #2, #199 ) ;
#93 = AXIS2_PLACEMENT_3D ( 'NONE', #204, #241, #94 ) ;
#94 = DIRECTION ( 'NONE',  ( 4.345688079642996235E-30, -1.000000000000000000, 1.223202451009287762E-15 ) ) ;
#95 = CC_DESIGN_PERSON_AND_ORGANIZATION_ASSIGNMENT ( #32, #121, ( #234 ) ) ;
#96 = APPROVAL_ROLE ( '' ) ;
#97 = CARTESIAN_POINT ( 'NONE',  ( 0.0000000000000000000, 0.0000000000000000000, 0.0000000000000000000 ) ) ;
#98 =( NAMED_UNIT ( * ) PLANE_ANGLE_UNIT ( ) SI_UNIT ( $, .RADIAN. ) );
#99 = CIRCLE ( 'NONE', #258, 1.949999999999965095 ) ;
#100 = DIRECTION ( 'NONE',  ( 0.0000000000000000000, -1.000000000000000000, 0.0000000000000000000 ) ) ;
#101 = DATE_AND_TIME ( #127, #179 ) ;
#102 = APPROVAL_PERSON_ORGANIZATION ( #64, #17, #240 ) ;
#103 = PERSON_AND_ORGANIZATION_ROLE ( 'creator' ) ;
#104 = EDGE_CURVE ( 'NONE', #118, #118, #63, .T. ) ;
#105 = DIRECTION ( 'NONE',  ( 4.275831445896958607E-31, 1.000000000000000000, 1.224646799147353207E-16 ) ) ;
#106 = PERSON_AND_ORGANIZATION ( #216, #253 ) ;
#107 = DIRECTION ( 'NONE',  ( 4.930380657631399454E-30, -1.000000000000000000, 1.387778780781466975E-15 ) ) ;
#108 = FACE_OUTER_BOUND ( 'NONE', #90, .T. ) ;
#109 = APPLICATION_CONTEXT ( 'configuration controlled 3d designs of mechanical parts and assemblies' ) ;
#110 = CONICAL_SURFACE ( 'NONE', #93, 1.949999999999998845, 1.082104136236485603 ) ;
#111 = ORIENTED_EDGE ( 'NONE', *, *, #30, .F. ) ;
#112 = DIRECTION ( 'NONE',  ( 3.491481338843133355E-15, 1.224646799147354045E-15, 1.000000000000000000 ) ) ;
#113 = ORIENTED_EDGE ( 'NONE', *, *, #104, .T. ) ;
#114 = CC_DESIGN_APPROVAL ( #244, ( #135 ) ) ;
#115 = EDGE_LOOP ( 'NONE', ( #134 ) ) ;
#116 = PRODUCT_DEFINITION_SHAPE ( 'NONE', 'NONE',  #135 ) ;
#117 = DIRECTION ( 'NONE',  ( 3.491481338843133355E-15, -1.224646799147353207E-16, 1.000000000000000000 ) ) ;
#118 = VERTEX_POINT ( 'NONE', #77 ) ;
#119 = EDGE_CURVE ( 'NONE', #202, #202, #173, .T. ) ;
#120 = APPROVAL_PERSON_ORGANIZATION ( #211, #223, #151 ) ;
#121 = PERSON_AND_ORGANIZATION_ROLE ( 'design_owner' ) ;
#122 = VERTEX_POINT ( 'NONE', #55 ) ;
#123 = CIRCLE ( 'NONE', #92, 1.949999999999981748 ) ;
#124 = PERSON_AND_ORGANIZATION_ROLE ( 'creator' ) ;
#125 = PERSON_AND_ORGANIZATION_ROLE ( 'design_supplier' ) ;
#126 = ADVANCED_FACE ( 'NONE', ( #108 ), #192, .F. ) ;
#127 = CALENDAR_DATE ( 2021, 15, 10 ) ;
#128 = LOCAL_TIME ( 11, 34, 5.000000000000000000, #76 ) ;
#129 = FACE_OUTER_BOUND ( 'NONE', #197, .T. ) ;
#130 = ADVANCED_FACE ( 'NONE', ( #228, #153 ), #80, .T. ) ;
#131 = FACE_BOUND ( 'NONE', #87, .T. ) ;
#132 = CARTESIAN_POINT ( 'NONE',  ( 2.712314108627117894E-15, 9.513517241117479970E-16, 0.7768376357772015517 ) ) ;
#133 = CIRCLE ( 'NONE', #214, 1.999999999999997335 ) ;
#134 = ORIENTED_EDGE ( 'NONE', *, *, #215, .F. ) ;
#135 = PRODUCT_DEFINITION ( 'UNKNOWN', '', #232, #208 ) ;
#136 = ORIENTED_EDGE ( 'NONE', *, *, #215, .T. ) ;
#137 = EDGE_LOOP ( 'NONE', ( #24 ) ) ;
#138 = AXIS2_PLACEMENT_3D ( 'NONE', #132, #21, #230 ) ;
#139 = DIRECTION ( 'NONE',  ( -3.491481338843133355E-15, 1.224646799147353207E-16, -1.000000000000000000 ) ) ;
#140 = PERSON_AND_ORGANIZATION ( #216, #253 ) ;
#141 = APPLICATION_CONTEXT ( 'configuration controlled 3d designs of mechanical parts and assemblies' ) ;
#142 = CC_DESIGN_DATE_AND_TIME_ASSIGNMENT ( #101, #209, ( #33 ) ) ;
#143 = FACE_OUTER_BOUND ( 'NONE', #160, .T. ) ;
#144 = CC_DESIGN_APPROVAL ( #17, ( #33 ) ) ;
#145 = CARTESIAN_POINT ( 'NONE',  ( 2.712314108627109611E-15, 1.949999999999999734, 0.7768376357771992202 ) ) ;
#146 = DIRECTION ( 'NONE',  ( 1.000000000000000000, 0.0000000000000000000, 0.0000000000000000000 ) ) ;
#147 = CC_DESIGN_DATE_AND_TIME_ASSIGNMENT ( #246, #172, ( #135 ) ) ;
#148 = DIRECTION ( 'NONE',  ( -3.491481338843133355E-15, -1.224646799147354045E-15, -1.000000000000000000 ) ) ;
#149 = PRODUCT_RELATED_PRODUCT_CATEGORY ( 'detail', '', ( #234 ) ) ;
#150 = SECURITY_CLASSIFICATION_LEVEL ( 'unclassified' ) ;
#151 = APPROVAL_ROLE ( '' ) ;
#152 = CIRCLE ( 'NONE', #222, 1.949999999999981748 ) ;
#153 = FACE_OUTER_BOUND ( 'NONE', #48, .T. ) ;
#154 = APPROVAL_DATE_TIME ( #38, #17 ) ;
#155 = CYLINDRICAL_SURFACE ( 'NONE', #40, 1.999999999999997335 ) ;
#156 = ORIENTED_EDGE ( 'NONE', *, *, #68, .F. ) ;
#157 = CARTESIAN_POINT ( 'NONE',  ( 1.969732685293944631E-15, 6.908892226874733986E-16, 0.5641538631126108427 ) ) ;
#158 = EDGE_LOOP ( 'NONE', ( #181 ) ) ;
#159 = LOCAL_TIME ( 11, 34, 5.000000000000000000, #39 ) ;
#160 = EDGE_LOOP ( 'NONE', ( #180 ) ) ;
#161 = FACE_OUTER_BOUND ( 'NONE', #233, .T. ) ;
#162 = AXIS2_PLACEMENT_3D ( 'NONE', #238, #148, #11 ) ;
#163 = CC_DESIGN_PERSON_AND_ORGANIZATION_ASSIGNMENT ( #106, #125, ( #232 ) ) ;
#164 = CYLINDRICAL_SURFACE ( 'NONE', #242, 1.949999999999981748 ) ;
#165 = DIRECTION ( 'NONE',  ( -3.491481338843133355E-15, 1.224646799147353207E-16, -1.000000000000000000 ) ) ;
#166 = VERTEX_POINT ( 'NONE', #220 ) ;
#167 = VERTEX_POINT ( 'NONE', #14 ) ;
#168 = ADVANCED_FACE ( 'NONE', ( #84, #62 ), #18, .T. ) ;
#169 = COORDINATED_UNIVERSAL_TIME_OFFSET ( 1, 0, .AHEAD. ) ;
#170 = CALENDAR_DATE ( 2021, 15, 10 ) ;
#171 = CARTESIAN_POINT ( 'NONE',  ( -3.491481338843130200E-15, -1.224646799147353059E-15, -0.9999999999999991118 ) ) ;
#172 = DATE_TIME_ROLE ( 'creation_date' ) ;
#173 = CIRCLE ( 'NONE', #82, 1.500000000000000222 ) ;
#174 = DIRECTION ( 'NONE',  ( 4.275831445896959482E-31, 1.000000000000000000, 1.224646799147353454E-16 ) ) ;
#175 = CARTESIAN_POINT ( 'NONE',  ( 2.304377683636468267E-13, -8.082668874372532400E-15, 66.00000000000000000 ) ) ;
#176 = DIRECTION ( 'NONE',  ( -3.491481338843133355E-15, -1.224646799147354045E-15, -1.000000000000000000 ) ) ;
#177 = ORIENTED_EDGE ( 'NONE', *, *, #35, .F. ) ;
#178 = ADVANCED_FACE ( 'NONE', ( #43, #131 ), #3, .T. ) ;
#179 = LOCAL_TIME ( 11, 34, 5.000000000000000000, #189 ) ;
#180 = ORIENTED_EDGE ( 'NONE', *, *, #119, .F. ) ;
#181 = ORIENTED_EDGE ( 'NONE', *, *, #104, .F. ) ;
#182 = CARTESIAN_POINT ( 'NONE',  ( 9.077851480992147986E-14, 3.184081677783120794E-14, 26.00000000000000355 ) ) ;
#183 = AXIS2_PLACEMENT_3D ( 'NONE', #175, #165, #71 ) ;
#184 = DATE_AND_TIME ( #16, #78 ) ;
#185 = EDGE_CURVE ( 'NONE', #167, #167, #152, .T. ) ;
#186 = APPLICATION_PROTOCOL_DEFINITION ( 'international standard', 'config_control_design', 1994, #141 ) ;
#187 = APPROVAL_STATUS ( 'not_yet_approved' ) ;
#188 = FACE_OUTER_BOUND ( 'NONE', #66, .T. ) ;
#189 = COORDINATED_UNIVERSAL_TIME_OFFSET ( 1, 0, .AHEAD. ) ;
#190 = AXIS2_PLACEMENT_3D ( 'NONE', #254, #46, #86 ) ;
#191 = PERSON_AND_ORGANIZATION ( #216, #253 ) ;
#192 = PLANE ( 'NONE',  #12 ) ;
#193 = PLANE ( 'NONE',  #190 ) ;
#194 = DIRECTION ( 'NONE',  ( -4.345688079643034070E-30, 1.000000000000000000, -1.223202451009298411E-15 ) ) ;
#195 = EDGE_LOOP ( 'NONE', ( #156 ) ) ;
#196 = DIRECTION ( 'NONE',  ( -3.491481338843133355E-15, -1.224646799147354045E-15, -1.000000000000000000 ) ) ;
#197 = EDGE_LOOP ( 'NONE', ( #217 ) ) ;
#198 = FACE_OUTER_BOUND ( 'NONE', #28, .T. ) ;
#199 = DIRECTION ( 'NONE',  ( 0.0000000000000000000, -1.000000000000000000, 0.0000000000000000000 ) ) ;
#200 = VERTEX_POINT ( 'NONE', #239 ) ;
#201 = APPROVAL_PERSON_ORGANIZATION ( #259, #244, #96 ) ;
#202 = VERTEX_POINT ( 'NONE', #56 ) ;
#203 = CC_DESIGN_PERSON_AND_ORGANIZATION_ASSIGNMENT ( #19, #103, ( #232 ) ) ;
#204 = CARTESIAN_POINT ( 'NONE',  ( 2.712314108627117894E-15, 9.513517241117479970E-16, 0.7768376357772015517 ) ) ;
#205 =( LENGTH_UNIT ( ) NAMED_UNIT ( * ) SI_UNIT ( .MILLI., .METRE. ) );
#206 = AXIS2_PLACEMENT_3D ( 'NONE', #69, #212, #219 ) ;
#207 = COORDINATED_UNIVERSAL_TIME_OFFSET ( 1, 0, .AHEAD. ) ;
#208 = DESIGN_CONTEXT ( 'detailed design', #141, 'design' ) ;
#209 = DATE_TIME_ROLE ( 'classification_date' ) ;
#210 = DIRECTION ( 'NONE',  ( 3.491481338843133355E-15, 1.224646799147354045E-15, 1.000000000000000000 ) ) ;
#211 = PERSON_AND_ORGANIZATION ( #216, #253 ) ;
#212 = DIRECTION ( 'NONE',  ( -3.491481338843133355E-15, 1.224646799147353207E-16, -1.000000000000000000 ) ) ;
#213 = CLOSED_SHELL ( 'NONE', ( #1, #27, #256, #57 ) ) ;
#214 = AXIS2_PLACEMENT_3D ( 'NONE', #250, #25, #6 ) ;
#215 = EDGE_CURVE ( 'NONE', #200, #200, #8, .T. ) ;
#216 = PERSON ( 'UNSPECIFIED', 'UNSPECIFIED', 'UNSPECIFIED', ('UNSPECIFIED'), ('UNSPECIFIED'), ('UNSPECIFIED') ) ;
#217 = ORIENTED_EDGE ( 'NONE', *, *, #89, .F. ) ;
#218 = CC_DESIGN_APPROVAL ( #223, ( #232 ) ) ;
#219 = DIRECTION ( 'NONE',  ( 0.0000000000000000000, 1.000000000000000000, 0.0000000000000000000 ) ) ;
#220 = CARTESIAN_POINT ( 'NONE',  ( 9.077851480992146724E-14, 1.949999999999996847, 26.00000000000000000 ) ) ;
#221 = APPLICATION_PROTOCOL_DEFINITION ( 'international standard', 'config_control_design', 1994, #109 ) ;
#222 = AXIS2_PLACEMENT_3D ( 'NONE', #73, #58, #100 ) ;
#223 = APPROVAL ( #187, 'UNSPECIFIED' ) ;
#224 = APPROVAL_STATUS ( 'not_yet_approved' ) ;
#225 = AXIS2_PLACEMENT_3D ( 'NONE', #171, #65, #245 ) ;
#226 = PERSON_AND_ORGANIZATION_ROLE ( 'classification_officer' ) ;
#227 = CARTESIAN_POINT ( 'NONE',  ( 9.410459749982665889E-14, 3.300744954042860197E-14, 26.95262794416288088 ) ) ;
#228 = FACE_OUTER_BOUND ( 'NONE', #83, .T. ) ;
#229 = ORIENTED_EDGE ( 'NONE', *, *, #119, .T. ) ;
#230 = DIRECTION ( 'NONE',  ( -4.345688079642996235E-30, 1.000000000000000000, -1.223202451009287762E-15 ) ) ;
#231 = MANIFOLD_SOLID_BREP ( 'Corps-Déplacer/Copier1[1]', #36 ) ;
#232 = PRODUCT_DEFINITION_FORMATION_WITH_SPECIFIED_SOURCE ( 'ANY', '', #234, .NOT_KNOWN. ) ;
#233 = EDGE_LOOP ( 'NONE', ( #29 ) ) ;
#234 = PRODUCT ( '62854', '62854', '', ( #70 ) ) ;
#235 = DIRECTION ( 'NONE',  ( 0.0000000000000000000, 1.000000000000000000, 0.0000000000000000000 ) ) ;
#236 = DIRECTION ( 'NONE',  ( -3.491481338843133355E-15, 1.224646799147353207E-16, -1.000000000000000000 ) ) ;
#237 = VERTEX_POINT ( 'NONE', #260 ) ;
#238 = CARTESIAN_POINT ( 'NONE',  ( 1.969732685293944631E-15, 6.908892226874733986E-16, 0.5641538631126108427 ) ) ;
#239 = CARTESIAN_POINT ( 'NONE',  ( 1.969732685293937926E-15, 1.549999999999999822, 0.5641538631126089554 ) ) ;
#240 = APPROVAL_ROLE ( '' ) ;
#241 = DIRECTION ( 'NONE',  ( 3.491481338843133355E-15, 1.224646799147354045E-15, 1.000000000000000000 ) ) ;
#242 = AXIS2_PLACEMENT_3D ( 'NONE', #67, #196, #194 ) ;
#243 = APPROVAL_DATE_TIME ( #22, #223 ) ;
#244 = APPROVAL ( #224, 'UNSPECIFIED' ) ;
#245 = DIRECTION ( 'NONE',  ( -4.345688079643034070E-30, 1.000000000000000000, -1.223202451009298411E-15 ) ) ;
#246 = DATE_AND_TIME ( #170, #59 ) ;
#247 = CIRCLE ( 'NONE', #138, 1.949999999999998845 ) ;
#248 = PLANE ( 'NONE',  #255 ) ;
#249 = ORIENTED_EDGE ( 'NONE', *, *, #185, .T. ) ;
#250 = CARTESIAN_POINT ( 'NONE',  ( 9.108088596354941962E-14, 3.194687430170376600E-14, 26.08660254037850379 ) ) ;
#251 = CARTESIAN_POINT ( 'NONE',  ( 2.304377683636468267E-13, 1.124819836996381437E-32, 66.00000000000000000 ) ) ;
#252 = ORIENTED_EDGE ( 'NONE', *, *, #185, .F. ) ;
#253 = ORGANIZATION ( 'UNSPECIFIED', 'UNSPECIFIED', '' ) ;
#254 = CARTESIAN_POINT ( 'NONE',  ( 6.982962677686266711E-14, 1.499759782661850218E-32, 20.00000000000000000 ) ) ;
#255 = AXIS2_PLACEMENT_3D ( 'NONE', #251, #20, #105 ) ;
#256 = ADVANCED_FACE ( 'NONE', ( #34, #188 ), #110, .T. ) ;
#257 = DIRECTION ( 'NONE',  ( 0.0000000000000000000, 0.0000000000000000000, 1.000000000000000000 ) ) ;
#258 = AXIS2_PLACEMENT_3D ( 'NONE', #182, #176, #91 ) ;
#259 = PERSON_AND_ORGANIZATION ( #216, #253 ) ;
#260 = CARTESIAN_POINT ( 'NONE',  ( 9.108088596354941962E-14, -1.999999999999965361, 26.08660254037850734 ) ) ;
#261 = AXIS2_PLACEMENT_3D ( 'NONE', #227, #210, #107 ) ;
#262 = DIRECTION ( 'NONE',  ( -4.275831445896958607E-31, -1.000000000000000000, -1.224646799147353207E-16 ) ) ;
#263 = SHAPE_DEFINITION_REPRESENTATION ( #116, #52 ) ;
ENDSEC;
END-ISO-10303-21;
