ISO-10303-21;
HEADER;
FILE_DESCRIPTION (( 'STEP AP203' ),
    '1' );
FILE_NAME ('62853.step',
    '2021-10-15T09:34:04',
    ( '' ),
    ( '' ),
    'SwSTEP 2.0',
    'SolidWorks 2019',
    '' );
FILE_SCHEMA (( 'CONFIG_CONTROL_DESIGN' ));
ENDSEC;

DATA;
#1 = CARTESIAN_POINT ( 'NONE',  ( 2.634132887647917279E-15, 1.899999999999999689, 0.7544456441290074977 ) ) ;
#2 = EDGE_LOOP ( 'NONE', ( #137 ) ) ;
#3 = EDGE_CURVE ( 'NONE', #17, #17, #164, .T. ) ;
#4 = PLANE ( 'NONE',  #207 ) ;
#5 = PERSON ( 'UNSPECIFIED', 'UNSPECIFIED', 'UNSPECIFIED', ('UNSPECIFIED'), ('UNSPECIFIED'), ('UNSPECIFIED') ) ;
#6 = DATE_AND_TIME ( #210, #171 ) ;
#7 = PERSON_AND_ORGANIZATION ( #5, #74 ) ;
#8 = APPROVAL_ROLE ( '' ) ;
#9 = COORDINATED_UNIVERSAL_TIME_OFFSET ( 1, 0, .AHEAD. ) ;
#10 = PERSON_AND_ORGANIZATION ( #5, #74 ) ;
#11 = CARTESIAN_POINT ( 'NONE',  ( 0.0000000000000000000, 0.0000000000000000000, 0.0000000000000000000 ) ) ;
#12 = CARTESIAN_POINT ( 'NONE',  ( 9.440696865345442194E-14, 3.311350706430109693E-14, 27.03923048454132783 ) ) ;
#13 = FACE_BOUND ( 'NONE', #47, .T. ) ;
#14 = CYLINDRICAL_SURFACE ( 'NONE', #83, 1.899999999999981926 ) ;
#15 = CYLINDRICAL_SURFACE ( 'NONE', #59, 1.999999999999997335 ) ;
#16 = EDGE_LOOP ( 'NONE', ( #105 ) ) ;
#17 = VERTEX_POINT ( 'NONE', #1 ) ;
#18 = CARTESIAN_POINT ( 'NONE',  ( 0.0000000000000000000, 0.0000000000000000000, 0.0000000000000000000 ) ) ;
#19 = AXIS2_PLACEMENT_3D ( 'NONE', #140, #99, #73 ) ;
#20 =( NAMED_UNIT ( * ) PLANE_ANGLE_UNIT ( ) SI_UNIT ( $, .RADIAN. ) );
#21 = PERSON_AND_ORGANIZATION_ROLE ( 'design_owner' ) ;
#22 = ADVANCED_FACE ( 'NONE', ( #143, #121 ), #100, .T. ) ;
#23 = EDGE_LOOP ( 'NONE', ( #44 ) ) ;
#24 = APPLICATION_CONTEXT ( 'configuration controlled 3d designs of mechanical parts and assemblies' ) ;
#25 =( NAMED_UNIT ( * ) SI_UNIT ( $, .STERADIAN. ) SOLID_ANGLE_UNIT ( ) );
#26 = EDGE_LOOP ( 'NONE', ( #188 ) ) ;
#27 = DATE_TIME_ROLE ( 'classification_date' ) ;
#28 = EDGE_LOOP ( 'NONE', ( #163 ) ) ;
#29 = LOCAL_TIME ( 11, 34, 4.000000000000000000, #85 ) ;
#30 = ADVANCED_FACE ( 'NONE', ( #195, #114 ), #15, .T. ) ;
#31 = DIRECTION ( 'NONE',  ( 3.491481338843133355E-15, 1.224646799147354045E-15, 1.000000000000000000 ) ) ;
#32 = CIRCLE ( 'NONE', #170, 2.000000000000000000 ) ;
#33 = EDGE_CURVE ( 'NONE', #81, #81, #244, .T. ) ;
#34 = DIRECTION ( 'NONE',  ( -3.491481338843133355E-15, 1.224646799147353207E-16, -1.000000000000000000 ) ) ;
#35 = DIRECTION ( 'NONE',  ( -4.460048292265220099E-30, 1.000000000000000000, -1.255391989193753892E-15 ) ) ;
#36 = DIRECTION ( 'NONE',  ( 4.930380657631399454E-30, -1.000000000000000000, 1.387778780781466975E-15 ) ) ;
#37 = VERTEX_POINT ( 'NONE', #242 ) ;
#38 = ORIENTED_EDGE ( 'NONE', *, *, #103, .F. ) ;
#39 = PERSON_AND_ORGANIZATION ( #5, #74 ) ;
#40 = PRODUCT_DEFINITION_SHAPE ( 'NONE', 'NONE',  #205 ) ;
#41 = CALENDAR_DATE ( 2021, 15, 10 ) ;
#42 = CIRCLE ( 'NONE', #88, 1.999999999999997335 ) ;
#43 = MECHANICAL_CONTEXT ( 'NONE', #91, 'mechanical' ) ;
#44 = ORIENTED_EDGE ( 'NONE', *, *, #98, .F. ) ;
#45 = DATE_AND_TIME ( #67, #70 ) ;
#46 = AXIS2_PLACEMENT_3D ( 'NONE', #234, #238, #258 ) ;
#47 = EDGE_LOOP ( 'NONE', ( #110 ) ) ;
#48 = AXIS2_PLACEMENT_3D ( 'NONE', #236, #55, #166 ) ;
#49 = CC_DESIGN_APPROVAL ( #199, ( #155 ) ) ;
#50 = EDGE_CURVE ( 'NONE', #37, #37, #42, .T. ) ;
#51 = DIRECTION ( 'NONE',  ( 3.491481338843133355E-15, -1.224646799147353207E-16, 1.000000000000000000 ) ) ;
#52 = DIRECTION ( 'NONE',  ( 3.491481338843133355E-15, 1.224646799147354045E-15, 1.000000000000000000 ) ) ;
#53 = CLOSED_SHELL ( 'NONE', ( #136, #174, #159, #22 ) ) ;
#54 = APPROVAL_PERSON_ORGANIZATION ( #7, #199, #8 ) ;
#55 = DIRECTION ( 'NONE',  ( -3.491481338843133355E-15, 1.224646799147353207E-16, -1.000000000000000000 ) ) ;
#56 = DIRECTION ( 'NONE',  ( 3.491481338843133355E-15, 1.224646799147354045E-15, 1.000000000000000000 ) ) ;
#57 = EDGE_LOOP ( 'NONE', ( #65 ) ) ;
#58 = CARTESIAN_POINT ( 'NONE',  ( 2.634132887647925168E-15, 9.239294432132555975E-16, 0.7544456441290097182 ) ) ;
#59 = AXIS2_PLACEMENT_3D ( 'NONE', #11, #96, #94 ) ;
#60 = CIRCLE ( 'NONE', #203, 1.899999999999981926 ) ;
#61 = DATE_AND_TIME ( #41, #196 ) ;
#62 = AXIS2_PLACEMENT_3D ( 'NONE', #115, #56, #214 ) ;
#63 = ORIENTED_EDGE ( 'NONE', *, *, #33, .F. ) ;
#64 = APPROVAL_STATUS ( 'not_yet_approved' ) ;
#65 = ORIENTED_EDGE ( 'NONE', *, *, #3, .T. ) ;
#66 = CALENDAR_DATE ( 2021, 15, 10 ) ;
#67 = CALENDAR_DATE ( 2021, 15, 10 ) ;
#68 = EDGE_LOOP ( 'NONE', ( #228 ) ) ;
#69 = EDGE_CURVE ( 'NONE', #167, #167, #32, .T. ) ;
#70 = LOCAL_TIME ( 11, 34, 4.000000000000000000, #191 ) ;
#71 = DIRECTION ( 'NONE',  ( 0.0000000000000000000, 1.000000000000000000, 0.0000000000000000000 ) ) ;
#72 = CARTESIAN_POINT ( 'NONE',  ( -3.491481338843130200E-15, -1.224646799147353059E-15, -0.9999999999999991118 ) ) ;
#73 = DIRECTION ( 'NONE',  ( 0.0000000000000000000, 1.000000000000000000, 0.0000000000000000000 ) ) ;
#74 = ORGANIZATION ( 'UNSPECIFIED', 'UNSPECIFIED', '' ) ;
#75 = DIRECTION ( 'NONE',  ( 6.162975822039163138E-30, -1.000000000000000000, 1.734723475976809461E-15 ) ) ;
#76 = DIRECTION ( 'NONE',  ( -3.491481338843133355E-15, -1.224646799147354045E-15, -1.000000000000000000 ) ) ;
#77 = CC_DESIGN_PERSON_AND_ORGANIZATION_ASSIGNMENT ( #39, #241, ( #205 ) ) ;
#78 = CARTESIAN_POINT ( 'NONE',  ( 6.982962677686265448E-14, 2.449293598294707696E-14, 19.99999999999999645 ) ) ;
#79 = CARTESIAN_POINT ( 'NONE',  ( -3.491481338843130200E-15, -1.224646799147353059E-15, -0.9999999999999991118 ) ) ;
#80 = CIRCLE ( 'NONE', #126, 1.524999999999999023 ) ;
#81 = VERTEX_POINT ( 'NONE', #101 ) ;
#82 = FACE_OUTER_BOUND ( 'NONE', #28, .T. ) ;
#83 = AXIS2_PLACEMENT_3D ( 'NONE', #72, #181, #180 ) ;
#84 = ORIENTED_EDGE ( 'NONE', *, *, #3, .F. ) ;
#85 = COORDINATED_UNIVERSAL_TIME_OFFSET ( 1, 0, .AHEAD. ) ;
#86 = ADVANCED_FACE ( 'NONE', ( #233, #117 ), #14, .T. ) ;
#87 = SHAPE_DEFINITION_REPRESENTATION ( #40, #261 ) ;
#88 = AXIS2_PLACEMENT_3D ( 'NONE', #177, #31, #75 ) ;
#89 = CC_DESIGN_DATE_AND_TIME_ASSIGNMENT ( #61, #220, ( #205 ) ) ;
#90 = APPROVAL_ROLE ( '' ) ;
#91 = APPLICATION_CONTEXT ( 'configuration controlled 3d designs of mechanical parts and assemblies' ) ;
#92 = EDGE_CURVE ( 'NONE', #122, #122, #227, .T. ) ;
#93 = PLANE ( 'NONE',  #251 ) ;
#94 = DIRECTION ( 'NONE',  ( 4.275831445896959482E-31, 1.000000000000000000, 1.224646799147353454E-16 ) ) ;
#95 = CARTESIAN_POINT ( 'NONE',  ( 2.304377683636468267E-13, -8.082668874372532400E-15, 66.00000000000000000 ) ) ;
#96 = DIRECTION ( 'NONE',  ( -3.491481338843133355E-15, 1.224646799147353207E-16, -1.000000000000000000 ) ) ;
#97 = CARTESIAN_POINT ( 'NONE',  ( 2.634132887647925168E-15, 9.239294432132555975E-16, 0.7544456441290097182 ) ) ;
#98 = EDGE_CURVE ( 'NONE', #127, #127, #183, .T. ) ;
#99 = DIRECTION ( 'NONE',  ( -3.491481338843133355E-15, 1.224646799147353207E-16, -1.000000000000000000 ) ) ;
#100 = CYLINDRICAL_SURFACE ( 'NONE', #175, 1.899999999999981926 ) ;
#101 = CARTESIAN_POINT ( 'NONE',  ( 2.304377683636468267E-13, 1.499999999999992228, 66.00000000000000000 ) ) ;
#102 = DIRECTION ( 'NONE',  ( 0.0000000000000000000, 0.0000000000000000000, 1.000000000000000000 ) ) ;
#103 = EDGE_CURVE ( 'NONE', #201, #201, #60, .T. ) ;
#104 = CONICAL_SURFACE ( 'NONE', #62, 1.524999999999999023, 1.221730476396031939 ) ;
#105 = ORIENTED_EDGE ( 'NONE', *, *, #50, .F. ) ;
#106 = PERSON_AND_ORGANIZATION ( #5, #74 ) ;
#107 = AXIS2_PLACEMENT_3D ( 'NONE', #78, #193, #257 ) ;
#108 = EDGE_LOOP ( 'NONE', ( #63 ) ) ;
#109 = APPROVAL ( #64, 'UNSPECIFIED' ) ;
#110 = ORIENTED_EDGE ( 'NONE', *, *, #33, .T. ) ;
#111 = CONICAL_SURFACE ( 'NONE', #235, 1.899999999999999023, 1.082104136236485825 ) ;
#112 = APPROVAL_PERSON_ORGANIZATION ( #125, #226, #90 ) ;
#113 = COORDINATED_UNIVERSAL_TIME_OFFSET ( 1, 0, .AHEAD. ) ;
#114 = FACE_OUTER_BOUND ( 'NONE', #243, .T. ) ;
#115 = CARTESIAN_POINT ( 'NONE',  ( 1.937962803273074544E-15, 6.797458481279981739E-16, 0.5550546072559559008 ) ) ;
#116 = CARTESIAN_POINT ( 'NONE',  ( 1.937962803273074544E-15, 6.797458481279981739E-16, 0.5550546072559559008 ) ) ;
#117 = FACE_OUTER_BOUND ( 'NONE', #23, .T. ) ;
#118 = CC_DESIGN_PERSON_AND_ORGANIZATION_ASSIGNMENT ( #148, #21, ( #124 ) ) ;
#119 = EDGE_LOOP ( 'NONE', ( #84 ) ) ;
#120 = DIRECTION ( 'NONE',  ( -4.293876597322364693E-30, 1.000000000000000000, -1.208618815229743433E-15 ) ) ;
#121 = FACE_OUTER_BOUND ( 'NONE', #119, .T. ) ;
#122 = VERTEX_POINT ( 'NONE', #200 ) ;
#123 = DIRECTION ( 'NONE',  ( -4.275831445896958607E-31, -1.000000000000000000, -1.224646799147353207E-16 ) ) ;
#124 = PRODUCT ( '62853', '62853', '', ( #43 ) ) ;
#125 = PERSON_AND_ORGANIZATION ( #5, #74 ) ;
#126 = AXIS2_PLACEMENT_3D ( 'NONE', #116, #158, #120 ) ;
#127 = VERTEX_POINT ( 'NONE', #184 ) ;
#128 = EDGE_LOOP ( 'NONE', ( #263 ) ) ;
#129 = CARTESIAN_POINT ( 'NONE',  ( 2.286920276942252663E-13, 1.999999999999992228, 65.50000000000000000 ) ) ;
#130 = CC_DESIGN_PERSON_AND_ORGANIZATION_ASSIGNMENT ( #186, #135, ( #155 ) ) ;
#131 = ORIENTED_EDGE ( 'NONE', *, *, #69, .T. ) ;
#132 = CLOSED_SHELL ( 'NONE', ( #30, #232, #240, #86, #187, #250 ) ) ;
#133 = CC_DESIGN_SECURITY_CLASSIFICATION ( #155, ( #197 ) ) ;
#134 = EDGE_LOOP ( 'NONE', ( #211 ) ) ;
#135 = PERSON_AND_ORGANIZATION_ROLE ( 'classification_officer' ) ;
#136 = ADVANCED_FACE ( 'NONE', ( #213 ), #93, .T. ) ;
#137 = ORIENTED_EDGE ( 'NONE', *, *, #69, .F. ) ;
#138 = APPROVAL_DATE_TIME ( #45, #226 ) ;
#139 = FACE_OUTER_BOUND ( 'NONE', #134, .T. ) ;
#140 = CARTESIAN_POINT ( 'NONE',  ( 2.304377683636468267E-13, -8.082668874372532400E-15, 66.00000000000000000 ) ) ;
#141 = FACE_OUTER_BOUND ( 'NONE', #108, .T. ) ;
#142 = FACE_BOUND ( 'NONE', #230, .T. ) ;
#143 = FACE_OUTER_BOUND ( 'NONE', #68, .T. ) ;
#144 = COORDINATED_UNIVERSAL_TIME_OFFSET ( 1, 0, .AHEAD. ) ;
#145 = AXIS2_PLACEMENT_3D ( 'NONE', #12, #254, #36 ) ;
#146 = CARTESIAN_POINT ( 'NONE',  ( 6.982962677686266711E-14, 1.499759782661850218E-32, 20.00000000000000000 ) ) ;
#147 = DIRECTION ( 'NONE',  ( 1.000000000000000000, 0.0000000000000000000, 0.0000000000000000000 ) ) ;
#148 = PERSON_AND_ORGANIZATION ( #5, #74 ) ;
#149 = EDGE_LOOP ( 'NONE', ( #38 ) ) ;
#150 = CONICAL_SURFACE ( 'NONE', #145, 2.499999999999961808, 0.5235987755982968173 ) ;
#151 = MANIFOLD_SOLID_BREP ( 'Corps-Déplacer/Copier1[1]', #132 ) ;
#152 = APPROVAL_STATUS ( 'not_yet_approved' ) ;
#153 = PERSON_AND_ORGANIZATION_ROLE ( 'creator' ) ;
#154 = AXIS2_PLACEMENT_3D ( 'NONE', #95, #178, #255 ) ;
#155 = SECURITY_CLASSIFICATION ( '', '', #249 ) ;
#156 = PRODUCT_RELATED_PRODUCT_CATEGORY ( 'detail', '', ( #124 ) ) ;
#157 = DIRECTION ( 'NONE',  ( 0.0000000000000000000, -1.000000000000000000, 0.0000000000000000000 ) ) ;
#158 = DIRECTION ( 'NONE',  ( -3.491481338843133355E-15, -1.224646799147354045E-15, -1.000000000000000000 ) ) ;
#159 = ADVANCED_FACE ( 'NONE', ( #217, #176 ), #111, .T. ) ;
#160 = PLANE ( 'NONE',  #48 ) ;
#161 = CARTESIAN_POINT ( 'NONE',  ( 6.982962677686265448E-14, 2.449293598294707696E-14, 19.99999999999999645 ) ) ;
#162 = DIRECTION ( 'NONE',  ( -4.275831445896958607E-31, -1.000000000000000000, -1.224646799147353207E-16 ) ) ;
#163 = ORIENTED_EDGE ( 'NONE', *, *, #98, .T. ) ;
#164 = CIRCLE ( 'NONE', #223, 1.899999999999999023 ) ;
#165 = CARTESIAN_POINT ( 'NONE',  ( 1.937962803273068233E-15, 1.524999999999999689, 0.5550546072559541244 ) ) ;
#166 = DIRECTION ( 'NONE',  ( 4.275831445896958607E-31, 1.000000000000000000, 1.224646799147353207E-16 ) ) ;
#167 = VERTEX_POINT ( 'NONE', #129 ) ;
#168 = EDGE_LOOP ( 'NONE', ( #209 ) ) ;
#169 = CALENDAR_DATE ( 2021, 15, 10 ) ;
#170 = AXIS2_PLACEMENT_3D ( 'NONE', #198, #216, #71 ) ;
#171 = LOCAL_TIME ( 11, 34, 4.000000000000000000, #113 ) ;
#172 = ORIENTED_EDGE ( 'NONE', *, *, #92, .F. ) ;
#173 = APPROVAL_DATE_TIME ( #225, #199 ) ;
#174 = ADVANCED_FACE ( 'NONE', ( #139 ), #104, .T. ) ;
#175 = AXIS2_PLACEMENT_3D ( 'NONE', #79, #192, #35 ) ;
#176 = FACE_OUTER_BOUND ( 'NONE', #57, .T. ) ;
#177 = CARTESIAN_POINT ( 'NONE',  ( 9.138325711717717005E-14, 3.205293182557626096E-14, 26.17320508075694718 ) ) ;
#178 = DIRECTION ( 'NONE',  ( -3.491481338843133355E-15, 1.224646799147353207E-16, -1.000000000000000000 ) ) ;
#179 = CC_DESIGN_APPROVAL ( #109, ( #205 ) ) ;
#180 = DIRECTION ( 'NONE',  ( -4.460048292265220099E-30, 1.000000000000000000, -1.255391989193753892E-15 ) ) ;
#181 = DIRECTION ( 'NONE',  ( -3.491481338843133355E-15, -1.224646799147354045E-15, -1.000000000000000000 ) ) ;
#182 = VERTEX_POINT ( 'NONE', #165 ) ;
#183 = CIRCLE ( 'NONE', #107, 1.899999999999981926 ) ;
#184 = CARTESIAN_POINT ( 'NONE',  ( 6.982962677686265448E-14, -1.899999999999957501, 19.99999999999999645 ) ) ;
#185 = APPLICATION_PROTOCOL_DEFINITION ( 'international standard', 'config_control_design', 1994, #24 ) ;
#186 = PERSON_AND_ORGANIZATION ( #5, #74 ) ;
#187 = ADVANCED_FACE ( 'NONE', ( #142, #218 ), #150, .T. ) ;
#188 = ORIENTED_EDGE ( 'NONE', *, *, #92, .T. ) ;
#189 = AXIS2_PLACEMENT_3D ( 'NONE', #18, #102, #147 ) ;
#190 = EDGE_CURVE ( 'NONE', #182, #182, #80, .T. ) ;
#191 = COORDINATED_UNIVERSAL_TIME_OFFSET ( 1, 0, .AHEAD. ) ;
#192 = DIRECTION ( 'NONE',  ( -3.491481338843133355E-15, -1.224646799147354045E-15, -1.000000000000000000 ) ) ;
#193 = DIRECTION ( 'NONE',  ( -3.491481338843133355E-15, 1.224646799147353207E-16, -1.000000000000000000 ) ) ;
#194 = FACE_OUTER_BOUND ( 'NONE', #2, .T. ) ;
#195 = FACE_OUTER_BOUND ( 'NONE', #128, .T. ) ;
#196 = LOCAL_TIME ( 11, 34, 4.000000000000000000, #144 ) ;
#197 = PRODUCT_DEFINITION_FORMATION_WITH_SPECIFIED_SOURCE ( 'ANY', '', #124, .NOT_KNOWN. ) ;
#198 = CARTESIAN_POINT ( 'NONE',  ( 2.286920276942252663E-13, -8.021436534415164826E-15, 65.50000000000000000 ) ) ;
#199 = APPROVAL ( #152, 'UNSPECIFIED' ) ;
#200 = CARTESIAN_POINT ( 'NONE',  ( 9.077851480992146724E-14, 1.899999999999997247, 26.00000000000000000 ) ) ;
#201 = VERTEX_POINT ( 'NONE', #260 ) ;
#202 = DESIGN_CONTEXT ( 'detailed design', #24, 'design' ) ;
#203 = AXIS2_PLACEMENT_3D ( 'NONE', #161, #34, #157 ) ;
#204 = APPROVAL_STATUS ( 'not_yet_approved' ) ;
#205 = PRODUCT_DEFINITION ( 'UNKNOWN', '', #197, #202 ) ;
#206 = DIRECTION ( 'NONE',  ( 3.491481338843133355E-15, -1.224646799147353207E-16, 1.000000000000000000 ) ) ;
#207 = AXIS2_PLACEMENT_3D ( 'NONE', #146, #206, #123 ) ;
#208 = CONICAL_SURFACE ( 'NONE', #154, 1.500000000000000222, 0.7853981633974476129 ) ;
#209 = ORIENTED_EDGE ( 'NONE', *, *, #190, .F. ) ;
#210 = CALENDAR_DATE ( 2021, 15, 10 ) ;
#211 = ORIENTED_EDGE ( 'NONE', *, *, #190, .T. ) ;
#212 = CC_DESIGN_PERSON_AND_ORGANIZATION_ASSIGNMENT ( #10, #153, ( #197 ) ) ;
#213 = FACE_OUTER_BOUND ( 'NONE', #149, .T. ) ;
#214 = DIRECTION ( 'NONE',  ( 4.293876597322364693E-30, -1.000000000000000000, 1.208618815229743433E-15 ) ) ;
#215 =( GEOMETRIC_REPRESENTATION_CONTEXT ( 3 ) GLOBAL_UNCERTAINTY_ASSIGNED_CONTEXT ( ( #262 ) ) GLOBAL_UNIT_ASSIGNED_CONTEXT ( ( #221, #20, #25 ) ) REPRESENTATION_CONTEXT ( 'NONE', 'WORKASPACE' ) );
#216 = DIRECTION ( 'NONE',  ( -3.491481338843133355E-15, 1.224646799147353207E-16, -1.000000000000000000 ) ) ;
#217 = FACE_BOUND ( 'NONE', #168, .T. ) ;
#218 = FACE_OUTER_BOUND ( 'NONE', #16, .T. ) ;
#219 = CC_DESIGN_PERSON_AND_ORGANIZATION_ASSIGNMENT ( #229, #231, ( #197 ) ) ;
#220 = DATE_TIME_ROLE ( 'creation_date' ) ;
#221 =( LENGTH_UNIT ( ) NAMED_UNIT ( * ) SI_UNIT ( .MILLI., .METRE. ) );
#222 = DATE_AND_TIME ( #169, #29 ) ;
#223 = AXIS2_PLACEMENT_3D ( 'NONE', #97, #76, #259 ) ;
#224 = APPROVAL_ROLE ( '' ) ;
#225 = DATE_AND_TIME ( #66, #252 ) ;
#226 = APPROVAL ( #204, 'UNSPECIFIED' ) ;
#227 = CIRCLE ( 'NONE', #46, 1.899999999999965272 ) ;
#228 = ORIENTED_EDGE ( 'NONE', *, *, #103, .T. ) ;
#229 = PERSON_AND_ORGANIZATION ( #5, #74 ) ;
#230 = EDGE_LOOP ( 'NONE', ( #172 ) ) ;
#231 = PERSON_AND_ORGANIZATION_ROLE ( 'design_supplier' ) ;
#232 = ADVANCED_FACE ( 'NONE', ( #194, #13 ), #208, .T. ) ;
#233 = FACE_OUTER_BOUND ( 'NONE', #26, .T. ) ;
#234 = CARTESIAN_POINT ( 'NONE',  ( 9.077851480992147986E-14, 3.184081677783120794E-14, 26.00000000000000355 ) ) ;
#235 = AXIS2_PLACEMENT_3D ( 'NONE', #58, #52, #253 ) ;
#236 = CARTESIAN_POINT ( 'NONE',  ( 2.304377683636468267E-13, 1.124819836996381437E-32, 66.00000000000000000 ) ) ;
#237 = CARTESIAN_POINT ( 'NONE',  ( 6.982962677686266711E-14, 1.499759782661850218E-32, 20.00000000000000000 ) ) ;
#238 = DIRECTION ( 'NONE',  ( -3.491481338843133355E-15, -1.224646799147354045E-15, -1.000000000000000000 ) ) ;
#239 = MANIFOLD_SOLID_BREP ( 'Corps-Déplacer/Copier1[2]', #53 ) ;
#240 = ADVANCED_FACE ( 'NONE', ( #141 ), #160, .F. ) ;
#241 = PERSON_AND_ORGANIZATION_ROLE ( 'creator' ) ;
#242 = CARTESIAN_POINT ( 'NONE',  ( 9.138325711717718267E-14, -1.999999999999965361, 26.17320508075695074 ) ) ;
#243 = EDGE_LOOP ( 'NONE', ( #131 ) ) ;
#244 = CIRCLE ( 'NONE', #19, 1.500000000000000222 ) ;
#245 = APPLICATION_PROTOCOL_DEFINITION ( 'international standard', 'config_control_design', 1994, #91 ) ;
#246 = CC_DESIGN_APPROVAL ( #226, ( #197 ) ) ;
#247 = APPROVAL_DATE_TIME ( #222, #109 ) ;
#248 = CC_DESIGN_DATE_AND_TIME_ASSIGNMENT ( #6, #27, ( #155 ) ) ;
#249 = SECURITY_CLASSIFICATION_LEVEL ( 'unclassified' ) ;
#250 = ADVANCED_FACE ( 'NONE', ( #82 ), #4, .F. ) ;
#251 = AXIS2_PLACEMENT_3D ( 'NONE', #237, #51, #162 ) ;
#252 = LOCAL_TIME ( 11, 34, 4.000000000000000000, #9 ) ;
#253 = DIRECTION ( 'NONE',  ( 4.257318824434944477E-30, -1.000000000000000000, 1.198328716957663377E-15 ) ) ;
#254 = DIRECTION ( 'NONE',  ( 3.491481338843133355E-15, 1.224646799147354045E-15, 1.000000000000000000 ) ) ;
#255 = DIRECTION ( 'NONE',  ( 0.0000000000000000000, 1.000000000000000000, 0.0000000000000000000 ) ) ;
#256 = APPROVAL_PERSON_ORGANIZATION ( #106, #109, #224 ) ;
#257 = DIRECTION ( 'NONE',  ( 0.0000000000000000000, -1.000000000000000000, 0.0000000000000000000 ) ) ;
#258 = DIRECTION ( 'NONE',  ( -6.487342970567649815E-30, 1.000000000000000000, -1.826024711554567144E-15 ) ) ;
#259 = DIRECTION ( 'NONE',  ( -4.257318824434944477E-30, 1.000000000000000000, -1.198328716957663377E-15 ) ) ;
#260 = CARTESIAN_POINT ( 'NONE',  ( 6.982962677686265448E-14, -1.899999999999957501, 19.99999999999999645 ) ) ;
#261 = ADVANCED_BREP_SHAPE_REPRESENTATION ( '62853', ( #151, #239, #189 ), #215 ) ;
#262 = UNCERTAINTY_MEASURE_WITH_UNIT (LENGTH_MEASURE( 1.000000000000000082E-05 ), #221, 'distance_accuracy_value', 'NONE');
#263 = ORIENTED_EDGE ( 'NONE', *, *, #50, .T. ) ;
ENDSEC;
END-ISO-10303-21;
