ISO-10303-21;
HEADER;
FILE_DESCRIPTION (( 'STEP AP203' ),
    '1' );
FILE_NAME ('62852.step',
    '2021-10-15T09:34:03',
    ( '' ),
    ( '' ),
    'SwSTEP 2.0',
    'SolidWorks 2019',
    '' );
FILE_SCHEMA (( 'CONFIG_CONTROL_DESIGN' ));
ENDSEC;

DATA;
#1 = DIRECTION ( 'NONE',  ( -3.491481338843133355E-15, -1.224646799147354045E-15, -1.000000000000000000 ) ) ;
#2 = EDGE_CURVE ( 'NONE', #18, #18, #246, .T. ) ;
#3 = APPROVAL_ROLE ( '' ) ;
#4 = AXIS2_PLACEMENT_3D ( 'NONE', #82, #162, #149 ) ;
#5 = CYLINDRICAL_SURFACE ( 'NONE', #75, 1.999999999999997335 ) ;
#6 = PERSON_AND_ORGANIZATION_ROLE ( 'creator' ) ;
#7 = EDGE_LOOP ( 'NONE', ( #195 ) ) ;
#8 = EDGE_LOOP ( 'NONE', ( #92 ) ) ;
#9 = ADVANCED_BREP_SHAPE_REPRESENTATION ( '62852', ( #165, #254, #4 ), #28 ) ;
#10 = EDGE_LOOP ( 'NONE', ( #15 ) ) ;
#11 = APPROVAL_PERSON_ORGANIZATION ( #87, #134, #3 ) ;
#12 = CYLINDRICAL_SURFACE ( 'NONE', #207, 1.849999999999981881 ) ;
#13 = CARTESIAN_POINT ( 'NONE',  ( 2.304377683636468267E-13, -8.082668874372532400E-15, 66.00000000000000000 ) ) ;
#14 = CARTESIAN_POINT ( 'NONE',  ( 1.874423039231334369E-15, 6.574590990090474286E-16, 0.5368560955426459058 ) ) ;
#15 = ORIENTED_EDGE ( 'NONE', *, *, #231, .T. ) ;
#16 = APPROVAL_STATUS ( 'not_yet_approved' ) ;
#17 = FACE_OUTER_BOUND ( 'NONE', #114, .T. ) ;
#18 = VERTEX_POINT ( 'NONE', #109 ) ;
#19 = PERSON_AND_ORGANIZATION ( #205, #153 ) ;
#20 = AXIS2_PLACEMENT_3D ( 'NONE', #35, #37, #202 ) ;
#21 = AXIS2_PLACEMENT_3D ( 'NONE', #220, #240, #175 ) ;
#22 = COORDINATED_UNIVERSAL_TIME_OFFSET ( 1, 0, .AHEAD. ) ;
#23 = DIRECTION ( 'NONE',  ( 4.275831445896959482E-31, 1.000000000000000000, 1.224646799147353454E-16 ) ) ;
#24 = SHAPE_DEFINITION_REPRESENTATION ( #111, #9 ) ;
#25 = VERTEX_POINT ( 'NONE', #164 ) ;
#26 = APPROVAL_ROLE ( '' ) ;
#27 = CLOSED_SHELL ( 'NONE', ( #236, #187, #41, #155, #97, #85 ) ) ;
#28 =( GEOMETRIC_REPRESENTATION_CONTEXT ( 3 ) GLOBAL_UNCERTAINTY_ASSIGNED_CONTEXT ( ( #199 ) ) GLOBAL_UNIT_ASSIGNED_CONTEXT ( ( #166, #188, #252 ) ) REPRESENTATION_CONTEXT ( 'NONE', 'WORKASPACE' ) );
#29 = ORIENTED_EDGE ( 'NONE', *, *, #126, .T. ) ;
#30 = CIRCLE ( 'NONE', #178, 1.474999999999999423 ) ;
#31 = ORIENTED_EDGE ( 'NONE', *, *, #221, .T. ) ;
#32 = EDGE_LOOP ( 'NONE', ( #31 ) ) ;
#33 = FACE_OUTER_BOUND ( 'NONE', #8, .T. ) ;
#34 = LOCAL_TIME ( 11, 34, 3.000000000000000000, #229 ) ;
#35 = CARTESIAN_POINT ( 'NONE',  ( 9.077851480992147986E-14, 3.184081677783120794E-14, 26.00000000000000355 ) ) ;
#36 = CC_DESIGN_DATE_AND_TIME_ASSIGNMENT ( #232, #148, ( #142 ) ) ;
#37 = DIRECTION ( 'NONE',  ( -3.491481338843133355E-15, -1.224646799147354045E-15, -1.000000000000000000 ) ) ;
#38 = CARTESIAN_POINT ( 'NONE',  ( -3.491481338843130200E-15, -1.224646799147353059E-15, -0.9999999999999991118 ) ) ;
#39 = LOCAL_TIME ( 11, 34, 3.000000000000000000, #211 ) ;
#40 = DIRECTION ( 'NONE',  ( 4.178288692907903341E-30, -1.000000000000000000, 1.249588944559565004E-15 ) ) ;
#41 = ADVANCED_FACE ( 'NONE', ( #180 ), #77, .F. ) ;
#42 = CALENDAR_DATE ( 2021, 15, 10 ) ;
#43 = CARTESIAN_POINT ( 'NONE',  ( 1.874423039231328452E-15, 1.474999999999999867, 0.5368560955426440184 ) ) ;
#44 = DATE_TIME_ROLE ( 'classification_date' ) ;
#45 = PERSON_AND_ORGANIZATION_ROLE ( 'design_owner' ) ;
#46 = VERTEX_POINT ( 'NONE', #107 ) ;
#47 = ADVANCED_FACE ( 'NONE', ( #259, #262 ), #12, .T. ) ;
#48 = APPROVAL_DATE_TIME ( #204, #256 ) ;
#49 = DIRECTION ( 'NONE',  ( 0.0000000000000000000, -1.000000000000000000, 0.0000000000000000000 ) ) ;
#50 = APPROVAL_STATUS ( 'not_yet_approved' ) ;
#51 = EDGE_LOOP ( 'NONE', ( #215 ) ) ;
#52 = AXIS2_PLACEMENT_3D ( 'NONE', #84, #247, #210 ) ;
#53 = APPROVAL ( #16, 'UNSPECIFIED' ) ;
#54 = ORIENTED_EDGE ( 'NONE', *, *, #209, .T. ) ;
#55 = AXIS2_PLACEMENT_3D ( 'NONE', #59, #99, #143 ) ;
#56 = DIRECTION ( 'NONE',  ( -3.491481338843133355E-15, -1.224646799147354045E-15, -1.000000000000000000 ) ) ;
#57 = FACE_OUTER_BOUND ( 'NONE', #72, .T. ) ;
#58 = FACE_OUTER_BOUND ( 'NONE', #80, .T. ) ;
#59 = CARTESIAN_POINT ( 'NONE',  ( 9.470933980708215975E-14, 3.321956458817358557E-14, 27.12583302491977122 ) ) ;
#60 = DIRECTION ( 'NONE',  ( -4.275831445896958607E-31, -1.000000000000000000, -1.224646799147353207E-16 ) ) ;
#61 = CIRCLE ( 'NONE', #201, 1.500000000000000222 ) ;
#62 = LOCAL_TIME ( 11, 34, 3.000000000000000000, #69 ) ;
#63 = CARTESIAN_POINT ( 'NONE',  ( 2.570593123606175921E-15, 1.849999999999999867, 0.7362471324156971697 ) ) ;
#64 = DIRECTION ( 'NONE',  ( -4.372381495365618766E-30, 1.000000000000000000, -1.230715979578140797E-15 ) ) ;
#65 = PERSON_AND_ORGANIZATION ( #205, #153 ) ;
#66 = CALENDAR_DATE ( 2021, 15, 10 ) ;
#67 = CARTESIAN_POINT ( 'NONE',  ( 6.982962677686265448E-14, 2.449293598294707696E-14, 19.99999999999999645 ) ) ;
#68 = CIRCLE ( 'NONE', #90, 1.849999999999981881 ) ;
#69 = COORDINATED_UNIVERSAL_TIME_OFFSET ( 1, 0, .AHEAD. ) ;
#70 = DATE_AND_TIME ( #66, #39 ) ;
#71 = AXIS2_PLACEMENT_3D ( 'NONE', #244, #174, #60 ) ;
#72 = EDGE_LOOP ( 'NONE', ( #112 ) ) ;
#73 = ADVANCED_FACE ( 'NONE', ( #158, #161 ), #257, .T. ) ;
#74 = CONICAL_SURFACE ( 'NONE', #172, 1.500000000000000222, 0.7853981633974476129 ) ;
#75 = AXIS2_PLACEMENT_3D ( 'NONE', #183, #250, #23 ) ;
#76 = ORIENTED_EDGE ( 'NONE', *, *, #126, .F. ) ;
#77 = PLANE ( 'NONE',  #261 ) ;
#78 = CC_DESIGN_PERSON_AND_ORGANIZATION_ASSIGNMENT ( #65, #45, ( #218 ) ) ;
#79 = PLANE ( 'NONE',  #71 ) ;
#80 = EDGE_LOOP ( 'NONE', ( #219 ) ) ;
#81 = CARTESIAN_POINT ( 'NONE',  ( -3.491481338843130200E-15, -1.224646799147353059E-15, -0.9999999999999991118 ) ) ;
#82 = CARTESIAN_POINT ( 'NONE',  ( 0.0000000000000000000, 0.0000000000000000000, 0.0000000000000000000 ) ) ;
#83 = VERTEX_POINT ( 'NONE', #86 ) ;
#84 = CARTESIAN_POINT ( 'NONE',  ( 2.286920276942252663E-13, -8.021436534415164826E-15, 65.50000000000000000 ) ) ;
#85 = ADVANCED_FACE ( 'NONE', ( #100 ), #116, .F. ) ;
#86 = CARTESIAN_POINT ( 'NONE',  ( 6.982962677686265448E-14, -1.849999999999957456, 19.99999999999999645 ) ) ;
#87 = PERSON_AND_ORGANIZATION ( #205, #153 ) ;
#88 = APPLICATION_CONTEXT ( 'configuration controlled 3d designs of mechanical parts and assemblies' ) ;
#89 = CARTESIAN_POINT ( 'NONE',  ( 2.570593123606184204E-15, 9.016426940943043592E-16, 0.7362471324156995012 ) ) ;
#90 = AXIS2_PLACEMENT_3D ( 'NONE', #67, #124, #49 ) ;
#91 = DATE_AND_TIME ( #106, #34 ) ;
#92 = ORIENTED_EDGE ( 'NONE', *, *, #221, .F. ) ;
#93 = CIRCLE ( 'NONE', #20, 1.849999999999965228 ) ;
#94 = SECURITY_CLASSIFICATION ( '', '', #125 ) ;
#95 = ADVANCED_FACE ( 'NONE', ( #17 ), #185, .T. ) ;
#96 = AXIS2_PLACEMENT_3D ( 'NONE', #177, #118, #40 ) ;
#97 = ADVANCED_FACE ( 'NONE', ( #242, #33 ), #189, .T. ) ;
#98 = CARTESIAN_POINT ( 'NONE',  ( 2.304377683636468267E-13, -8.082668874372532400E-15, 66.00000000000000000 ) ) ;
#99 = DIRECTION ( 'NONE',  ( 3.491481338843133355E-15, 1.224646799147354045E-15, 1.000000000000000000 ) ) ;
#100 = FACE_OUTER_BOUND ( 'NONE', #51, .T. ) ;
#101 = CIRCLE ( 'NONE', #146, 1.849999999999998979 ) ;
#102 = EDGE_LOOP ( 'NONE', ( #217 ) ) ;
#103 = DIRECTION ( 'NONE',  ( -3.491481338843133355E-15, 1.224646799147353207E-16, -1.000000000000000000 ) ) ;
#104 = DIRECTION ( 'NONE',  ( 3.491481338843133355E-15, 1.224646799147354045E-15, 1.000000000000000000 ) ) ;
#105 = PERSON_AND_ORGANIZATION_ROLE ( 'classification_officer' ) ;
#106 = CALENDAR_DATE ( 2021, 15, 10 ) ;
#107 = CARTESIAN_POINT ( 'NONE',  ( 9.077851480992146724E-14, 1.849999999999996980, 26.00000000000000000 ) ) ;
#108 = APPROVAL_DATE_TIME ( #70, #134 ) ;
#109 = CARTESIAN_POINT ( 'NONE',  ( 6.982962677686265448E-14, -1.849999999999957456, 19.99999999999999645 ) ) ;
#110 = VERTEX_POINT ( 'NONE', #63 ) ;
#111 = PRODUCT_DEFINITION_SHAPE ( 'NONE', 'NONE',  #142 ) ;
#112 = ORIENTED_EDGE ( 'NONE', *, *, #212, .F. ) ;
#113 = CLOSED_SHELL ( 'NONE', ( #137, #95, #73, #47 ) ) ;
#114 = EDGE_LOOP ( 'NONE', ( #54 ) ) ;
#115 = ORIENTED_EDGE ( 'NONE', *, *, #212, .T. ) ;
#116 = PLANE ( 'NONE',  #21 ) ;
#117 = FACE_OUTER_BOUND ( 'NONE', #135, .T. ) ;
#118 = DIRECTION ( 'NONE',  ( 3.491481338843133355E-15, 1.224646799147354045E-15, 1.000000000000000000 ) ) ;
#119 = DIRECTION ( 'NONE',  ( -4.164172852729199599E-30, 1.000000000000000000, -1.172110456741097414E-15 ) ) ;
#120 = PRODUCT_RELATED_PRODUCT_CATEGORY ( 'detail', '', ( #218 ) ) ;
#121 = CIRCLE ( 'NONE', #52, 2.000000000000000000 ) ;
#122 = DIRECTION ( 'NONE',  ( -3.491481338843133355E-15, 1.224646799147353207E-16, -1.000000000000000000 ) ) ;
#123 = APPLICATION_CONTEXT ( 'configuration controlled 3d designs of mechanical parts and assemblies' ) ;
#124 = DIRECTION ( 'NONE',  ( -3.491481338843133355E-15, 1.224646799147353207E-16, -1.000000000000000000 ) ) ;
#125 = SECURITY_CLASSIFICATION_LEVEL ( 'unclassified' ) ;
#126 = EDGE_CURVE ( 'NONE', #25, #25, #61, .T. ) ;
#127 = APPLICATION_PROTOCOL_DEFINITION ( 'international standard', 'config_control_design', 1994, #88 ) ;
#128 = APPLICATION_PROTOCOL_DEFINITION ( 'international standard', 'config_control_design', 1994, #123 ) ;
#129 = PERSON_AND_ORGANIZATION ( #205, #153 ) ;
#130 = CARTESIAN_POINT ( 'NONE',  ( 9.168562827080492048E-14, -1.999999999999965361, 26.25980762113539413 ) ) ;
#131 = CARTESIAN_POINT ( 'NONE',  ( 9.168562827080490786E-14, 3.215898934944874961E-14, 26.25980762113539058 ) ) ;
#132 = PERSON_AND_ORGANIZATION_ROLE ( 'creator' ) ;
#133 = APPROVAL_PERSON_ORGANIZATION ( #179, #53, #181 ) ;
#134 = APPROVAL ( #253, 'UNSPECIFIED' ) ;
#135 = EDGE_LOOP ( 'NONE', ( #216 ) ) ;
#136 = CC_DESIGN_APPROVAL ( #134, ( #94 ) ) ;
#137 = ADVANCED_FACE ( 'NONE', ( #57 ), #79, .T. ) ;
#138 = DIRECTION ( 'NONE',  ( 4.372381495365618766E-30, -1.000000000000000000, 1.230715979578140797E-15 ) ) ;
#139 = CYLINDRICAL_SURFACE ( 'NONE', #213, 1.849999999999981881 ) ;
#140 = LOCAL_TIME ( 11, 34, 3.000000000000000000, #22 ) ;
#141 = DIRECTION ( 'NONE',  ( 3.491481338843133355E-15, 1.224646799147354045E-15, 1.000000000000000000 ) ) ;
#142 = PRODUCT_DEFINITION ( 'UNKNOWN', '', #227, #160 ) ;
#143 = DIRECTION ( 'NONE',  ( 4.930380657631400155E-30, -1.000000000000000000, 1.387778780781467172E-15 ) ) ;
#144 = DIRECTION ( 'NONE',  ( -3.491481338843133355E-15, 1.224646799147353207E-16, -1.000000000000000000 ) ) ;
#145 = AXIS2_PLACEMENT_3D ( 'NONE', #200, #156, #238 ) ;
#146 = AXIS2_PLACEMENT_3D ( 'NONE', #89, #245, #64 ) ;
#147 = VERTEX_POINT ( 'NONE', #43 ) ;
#148 = DATE_TIME_ROLE ( 'creation_date' ) ;
#149 = DIRECTION ( 'NONE',  ( 1.000000000000000000, 0.0000000000000000000, 0.0000000000000000000 ) ) ;
#150 = LOCAL_TIME ( 11, 34, 3.000000000000000000, #263 ) ;
#151 = DIRECTION ( 'NONE',  ( -4.178288692907903341E-30, 1.000000000000000000, -1.249588944559565004E-15 ) ) ;
#152 = CALENDAR_DATE ( 2021, 15, 10 ) ;
#153 = ORGANIZATION ( 'UNSPECIFIED', 'UNSPECIFIED', '' ) ;
#154 = EDGE_LOOP ( 'NONE', ( #193 ) ) ;
#155 = ADVANCED_FACE ( 'NONE', ( #58, #223 ), #139, .T. ) ;
#156 = DIRECTION ( 'NONE',  ( -3.491481338843133355E-15, 1.224646799147353207E-16, -1.000000000000000000 ) ) ;
#157 = DIRECTION ( 'NONE',  ( 0.0000000000000000000, 1.000000000000000000, 0.0000000000000000000 ) ) ;
#158 = FACE_BOUND ( 'NONE', #154, .T. ) ;
#159 = CC_DESIGN_PERSON_AND_ORGANIZATION_ASSIGNMENT ( #129, #105, ( #94 ) ) ;
#160 = DESIGN_CONTEXT ( 'detailed design', #123, 'design' ) ;
#161 = FACE_OUTER_BOUND ( 'NONE', #192, .T. ) ;
#162 = DIRECTION ( 'NONE',  ( 0.0000000000000000000, 0.0000000000000000000, 1.000000000000000000 ) ) ;
#163 = VERTEX_POINT ( 'NONE', #249 ) ;
#165 = MANIFOLD_SOLID_BREP ( 'Corps-Déplacer/Copier1[1]', #27 ) ;
#164 = CARTESIAN_POINT ( 'NONE',  ( 2.304377683636468267E-13, 1.499999999999992228, 66.00000000000000000 ) ) ;
#166 =( LENGTH_UNIT ( ) NAMED_UNIT ( * ) SI_UNIT ( .MILLI., .METRE. ) );
#167 = EDGE_CURVE ( 'NONE', #46, #46, #93, .T. ) ;
#168 = VERTEX_POINT ( 'NONE', #130 ) ;
#169 = APPROVAL_DATE_TIME ( #234, #53 ) ;
#170 = CC_DESIGN_PERSON_AND_ORGANIZATION_ASSIGNMENT ( #190, #235, ( #227 ) ) ;
#171 = ORIENTED_EDGE ( 'NONE', *, *, #239, .T. ) ;
#172 = AXIS2_PLACEMENT_3D ( 'NONE', #13, #144, #198 ) ;
#173 = APPROVAL_PERSON_ORGANIZATION ( #230, #256, #26 ) ;
#174 = DIRECTION ( 'NONE',  ( 3.491481338843133355E-15, -1.224646799147353207E-16, 1.000000000000000000 ) ) ;
#175 = DIRECTION ( 'NONE',  ( -4.275831445896958607E-31, -1.000000000000000000, -1.224646799147353207E-16 ) ) ;
#176 = CC_DESIGN_DATE_AND_TIME_ASSIGNMENT ( #91, #44, ( #94 ) ) ;
#177 = CARTESIAN_POINT ( 'NONE',  ( 1.874423039231334369E-15, 6.574590990090474286E-16, 0.5368560955426459058 ) ) ;
#178 = AXIS2_PLACEMENT_3D ( 'NONE', #14, #1, #151 ) ;
#179 = PERSON_AND_ORGANIZATION ( #205, #153 ) ;
#180 = FACE_OUTER_BOUND ( 'NONE', #194, .T. ) ;
#181 = APPROVAL_ROLE ( '' ) ;
#182 = ORIENTED_EDGE ( 'NONE', *, *, #167, .F. ) ;
#183 = CARTESIAN_POINT ( 'NONE',  ( 0.0000000000000000000, 0.0000000000000000000, 0.0000000000000000000 ) ) ;
#184 = CALENDAR_DATE ( 2021, 15, 10 ) ;
#185 = CONICAL_SURFACE ( 'NONE', #96, 1.474999999999999423, 1.221730476396032161 ) ;
#186 = DIRECTION ( 'NONE',  ( 6.162975822039163138E-30, -1.000000000000000000, 1.734723475976809461E-15 ) ) ;
#187 = ADVANCED_FACE ( 'NONE', ( #117, #197 ), #74, .T. ) ;
#188 =( NAMED_UNIT ( * ) PLANE_ANGLE_UNIT ( ) SI_UNIT ( $, .RADIAN. ) );
#189 = CONICAL_SURFACE ( 'NONE', #55, 2.499999999999961364, 0.5235987755982977054 ) ;
#190 = PERSON_AND_ORGANIZATION ( #205, #153 ) ;
#191 = CC_DESIGN_PERSON_AND_ORGANIZATION_ASSIGNMENT ( #19, #132, ( #227 ) ) ;
#192 = EDGE_LOOP ( 'NONE', ( #171 ) ) ;
#193 = ORIENTED_EDGE ( 'NONE', *, *, #209, .F. ) ;
#194 = EDGE_LOOP ( 'NONE', ( #76 ) ) ;
#195 = ORIENTED_EDGE ( 'NONE', *, *, #239, .F. ) ;
#196 = EDGE_LOOP ( 'NONE', ( #29 ) ) ;
#197 = FACE_BOUND ( 'NONE', #196, .T. ) ;
#198 = DIRECTION ( 'NONE',  ( 0.0000000000000000000, 1.000000000000000000, 0.0000000000000000000 ) ) ;
#199 = UNCERTAINTY_MEASURE_WITH_UNIT (LENGTH_MEASURE( 1.000000000000000082E-05 ), #166, 'distance_accuracy_value', 'NONE');
#200 = CARTESIAN_POINT ( 'NONE',  ( 6.982962677686265448E-14, 2.449293598294707696E-14, 19.99999999999999645 ) ) ;
#201 = AXIS2_PLACEMENT_3D ( 'NONE', #98, #122, #157 ) ;
#202 = DIRECTION ( 'NONE',  ( -6.662676564366779614E-30, 1.000000000000000000, -1.875376730785772823E-15 ) ) ;
#203 = MECHANICAL_CONTEXT ( 'NONE', #88, 'mechanical' ) ;
#204 = DATE_AND_TIME ( #42, #140 ) ;
#205 = PERSON ( 'UNSPECIFIED', 'UNSPECIFIED', 'UNSPECIFIED', ('UNSPECIFIED'), ('UNSPECIFIED'), ('UNSPECIFIED') ) ;
#206 = PERSON_AND_ORGANIZATION ( #205, #153 ) ;
#207 = AXIS2_PLACEMENT_3D ( 'NONE', #81, #56, #260 ) ;
#208 = CC_DESIGN_APPROVAL ( #53, ( #142 ) ) ;
#209 = EDGE_CURVE ( 'NONE', #147, #147, #30, .T. ) ;
#210 = DIRECTION ( 'NONE',  ( 0.0000000000000000000, 1.000000000000000000, 0.0000000000000000000 ) ) ;
#211 = COORDINATED_UNIVERSAL_TIME_OFFSET ( 1, 0, .AHEAD. ) ;
#212 = EDGE_CURVE ( 'NONE', #83, #83, #68, .T. ) ;
#213 = AXIS2_PLACEMENT_3D ( 'NONE', #38, #222, #119 ) ;
#214 = CC_DESIGN_SECURITY_CLASSIFICATION ( #94, ( #227 ) ) ;
#215 = ORIENTED_EDGE ( 'NONE', *, *, #2, .T. ) ;
#216 = ORIENTED_EDGE ( 'NONE', *, *, #231, .F. ) ;
#217 = ORIENTED_EDGE ( 'NONE', *, *, #2, .F. ) ;
#218 = PRODUCT ( '62852', '62852', '', ( #203 ) ) ;
#219 = ORIENTED_EDGE ( 'NONE', *, *, #167, .T. ) ;
#220 = CARTESIAN_POINT ( 'NONE',  ( 6.982962677686266711E-14, 1.499759782661850218E-32, 20.00000000000000000 ) ) ;
#221 = EDGE_CURVE ( 'NONE', #168, #168, #226, .T. ) ;
#222 = DIRECTION ( 'NONE',  ( -3.491481338843133355E-15, -1.224646799147354045E-15, -1.000000000000000000 ) ) ;
#223 = FACE_OUTER_BOUND ( 'NONE', #102, .T. ) ;
#224 = CARTESIAN_POINT ( 'NONE',  ( 2.570593123606184204E-15, 9.016426940943043592E-16, 0.7362471324156995012 ) ) ;
#225 = DIRECTION ( 'NONE',  ( 4.275831445896958607E-31, 1.000000000000000000, 1.224646799147353207E-16 ) ) ;
#226 = CIRCLE ( 'NONE', #237, 1.999999999999997335 ) ;
#227 = PRODUCT_DEFINITION_FORMATION_WITH_SPECIFIED_SOURCE ( 'ANY', '', #218, .NOT_KNOWN. ) ;
#228 = FACE_OUTER_BOUND ( 'NONE', #10, .T. ) ;
#229 = COORDINATED_UNIVERSAL_TIME_OFFSET ( 1, 0, .AHEAD. ) ;
#230 = PERSON_AND_ORGANIZATION ( #205, #153 ) ;
#231 = EDGE_CURVE ( 'NONE', #163, #163, #121, .T. ) ;
#232 = DATE_AND_TIME ( #152, #62 ) ;
#233 = FACE_OUTER_BOUND ( 'NONE', #32, .T. ) ;
#234 = DATE_AND_TIME ( #184, #150 ) ;
#235 = PERSON_AND_ORGANIZATION_ROLE ( 'design_supplier' ) ;
#236 = ADVANCED_FACE ( 'NONE', ( #233, #228 ), #5, .T. ) ;
#237 = AXIS2_PLACEMENT_3D ( 'NONE', #131, #104, #186 ) ;
#238 = DIRECTION ( 'NONE',  ( 0.0000000000000000000, -1.000000000000000000, 0.0000000000000000000 ) ) ;
#239 = EDGE_CURVE ( 'NONE', #110, #110, #101, .T. ) ;
#240 = DIRECTION ( 'NONE',  ( 3.491481338843133355E-15, -1.224646799147353207E-16, 1.000000000000000000 ) ) ;
#241 = AXIS2_PLACEMENT_3D ( 'NONE', #224, #141, #138 ) ;
#242 = FACE_BOUND ( 'NONE', #258, .T. ) ;
#243 = CARTESIAN_POINT ( 'NONE',  ( 2.304377683636468267E-13, 1.124819836996381437E-32, 66.00000000000000000 ) ) ;
#244 = CARTESIAN_POINT ( 'NONE',  ( 6.982962677686266711E-14, 1.499759782661850218E-32, 20.00000000000000000 ) ) ;
#245 = DIRECTION ( 'NONE',  ( -3.491481338843133355E-15, -1.224646799147354045E-15, -1.000000000000000000 ) ) ;
#246 = CIRCLE ( 'NONE', #145, 1.849999999999981881 ) ;
#247 = DIRECTION ( 'NONE',  ( -3.491481338843133355E-15, 1.224646799147353207E-16, -1.000000000000000000 ) ) ;
#248 = CC_DESIGN_PERSON_AND_ORGANIZATION_ASSIGNMENT ( #206, #6, ( #142 ) ) ;
#249 = CARTESIAN_POINT ( 'NONE',  ( 2.286920276942252663E-13, 1.999999999999992228, 65.50000000000000000 ) ) ;
#250 = DIRECTION ( 'NONE',  ( -3.491481338843133355E-15, 1.224646799147353207E-16, -1.000000000000000000 ) ) ;
#251 = CC_DESIGN_APPROVAL ( #256, ( #227 ) ) ;
#252 =( NAMED_UNIT ( * ) SI_UNIT ( $, .STERADIAN. ) SOLID_ANGLE_UNIT ( ) );
#253 = APPROVAL_STATUS ( 'not_yet_approved' ) ;
#254 = MANIFOLD_SOLID_BREP ( 'Corps-Déplacer/Copier1[2]', #113 ) ;
#255 = EDGE_LOOP ( 'NONE', ( #115 ) ) ;
#256 = APPROVAL ( #50, 'UNSPECIFIED' ) ;
#257 = CONICAL_SURFACE ( 'NONE', #241, 1.849999999999998979, 1.082104136236486047 ) ;
#258 = EDGE_LOOP ( 'NONE', ( #182 ) ) ;
#259 = FACE_OUTER_BOUND ( 'NONE', #255, .T. ) ;
#260 = DIRECTION ( 'NONE',  ( -4.164172852729199599E-30, 1.000000000000000000, -1.172110456741097414E-15 ) ) ;
#261 = AXIS2_PLACEMENT_3D ( 'NONE', #243, #103, #225 ) ;
#262 = FACE_OUTER_BOUND ( 'NONE', #7, .T. ) ;
#263 = COORDINATED_UNIVERSAL_TIME_OFFSET ( 1, 0, .AHEAD. ) ;
ENDSEC;
END-ISO-10303-21;
