ISO-10303-21;
HEADER;
FILE_DESCRIPTION (( 'STEP AP203' ),
    '1' );
FILE_NAME ('62851.step',
    '2021-10-15T09:34:03',
    ( '' ),
    ( '' ),
    'SwSTEP 2.0',
    'SolidWorks 2019',
    '' );
FILE_SCHEMA (( 'CONFIG_CONTROL_DESIGN' ));
ENDSEC;

DATA;
#1 = AXIS2_PLACEMENT_3D ( 'NONE', #178, #2, #62 ) ;
#2 = DIRECTION ( 'NONE',  ( -3.491481338843133355E-15, 1.224646799147353207E-16, -1.000000000000000000 ) ) ;
#3 = ORIENTED_EDGE ( 'NONE', *, *, #188, .T. ) ;
#4 = CYLINDRICAL_SURFACE ( 'NONE', #63, 1.999999999999997335 ) ;
#5 = DIRECTION ( 'NONE',  ( 4.324895313711689939E-30, -1.000000000000000000, 1.217349807703023201E-15 ) ) ;
#6 = PLANE ( 'NONE',  #259 ) ;
#7 = DIRECTION ( 'NONE',  ( -4.324895313711689939E-30, 1.000000000000000000, -1.217349807703023201E-15 ) ) ;
#8 = ORIENTED_EDGE ( 'NONE', *, *, #138, .F. ) ;
#9 = AXIS2_PLACEMENT_3D ( 'NONE', #205, #30, #164 ) ;
#10 = DIRECTION ( 'NONE',  ( 1.000000000000000000, 0.0000000000000000000, 0.0000000000000000000 ) ) ;
#11 = DATE_TIME_ROLE ( 'creation_date' ) ;
#12 = APPROVAL_STATUS ( 'not_yet_approved' ) ;
#13 = ORIENTED_EDGE ( 'NONE', *, *, #119, .T. ) ;
#14 = ORIENTED_EDGE ( 'NONE', *, *, #40, .F. ) ;
#15 = CALENDAR_DATE ( 2021, 15, 10 ) ;
#16 = PRODUCT_DEFINITION ( 'UNKNOWN', '', #68, #78 ) ;
#17 = APPLICATION_CONTEXT ( 'configuration controlled 3d designs of mechanical parts and assemblies' ) ;
#18 = CC_DESIGN_APPROVAL ( #45, ( #38 ) ) ;
#19 = PERSON_AND_ORGANIZATION_ROLE ( 'design_supplier' ) ;
#20 = AXIS2_PLACEMENT_3D ( 'NONE', #126, #161, #137 ) ;
#21 = AXIS2_PLACEMENT_3D ( 'NONE', #123, #199, #7 ) ;
#22 = CALENDAR_DATE ( 2021, 15, 10 ) ;
#23 = FACE_BOUND ( 'NONE', #166, .T. ) ;
#24 = DIRECTION ( 'NONE',  ( 4.315809399187085678E-30, -1.000000000000000000, 1.214792350123815205E-15 ) ) ;
#25 = CARTESIAN_POINT ( 'NONE',  ( 2.479206556189449342E-15, 8.695886011719430528E-16, 0.7100729792274670382 ) ) ;
#26 = FACE_OUTER_BOUND ( 'NONE', #111, .T. ) ;
#27 = FACE_OUTER_BOUND ( 'NONE', #226, .T. ) ;
#28 = DIRECTION ( 'NONE',  ( -6.905295038699466845E-30, 1.000000000000000000, -1.943667760198140852E-15 ) ) ;
#29 = CC_DESIGN_PERSON_AND_ORGANIZATION_ASSIGNMENT ( #36, #148, ( #155 ) ) ;
#30 = DIRECTION ( 'NONE',  ( 3.491481338843133355E-15, 1.224646799147354045E-15, 1.000000000000000000 ) ) ;
#31 = VERTEX_POINT ( 'NONE', #114 ) ;
#32 = ADVANCED_FACE ( 'NONE', ( #27 ), #6, .F. ) ;
#33 = CARTESIAN_POINT ( 'NONE',  ( 9.207871077052098974E-14, -1.999999999999965361, 26.37239092362737125 ) ) ;
#34 = VERTEX_POINT ( 'NONE', #192 ) ;
#35 = CARTESIAN_POINT ( 'NONE',  ( 6.982962677686265448E-14, -1.784999999999957510, 19.99999999999999645 ) ) ;
#36 = PERSON_AND_ORGANIZATION ( #82, #57 ) ;
#37 = ADVANCED_FACE ( 'NONE', ( #198, #23 ), #136, .T. ) ;
#38 = SECURITY_CLASSIFICATION ( '', '', #175 ) ;
#39 = CLOSED_SHELL ( 'NONE', ( #115, #37, #195, #261, #75, #32 ) ) ;
#40 = EDGE_CURVE ( 'NONE', #194, #194, #159, .T. ) ;
#41 = DIRECTION ( 'NONE',  ( 6.162975822039163138E-30, -1.000000000000000000, 1.734723475976809461E-15 ) ) ;
#42 = FACE_OUTER_BOUND ( 'NONE', #203, .T. ) ;
#43 = DIRECTION ( 'NONE',  ( -3.491481338843133355E-15, 1.224646799147353207E-16, -1.000000000000000000 ) ) ;
#44 = PLANE ( 'NONE',  #144 ) ;
#45 = APPROVAL ( #118, 'UNSPECIFIED' ) ;
#46 = CARTESIAN_POINT ( 'NONE',  ( 9.077851480992147986E-14, 3.184081677783120794E-14, 26.00000000000000355 ) ) ;
#47 = ORIENTED_EDGE ( 'NONE', *, *, #113, .T. ) ;
#48 = PERSON_AND_ORGANIZATION ( #82, #57 ) ;
#49 = CC_DESIGN_PERSON_AND_ORGANIZATION_ASSIGNMENT ( #219, #97, ( #38 ) ) ;
#50 = FACE_OUTER_BOUND ( 'NONE', #255, .T. ) ;
#51 = ORIENTED_EDGE ( 'NONE', *, *, #93, .T. ) ;
#52 = APPROVAL_ROLE ( '' ) ;
#53 = ORIENTED_EDGE ( 'NONE', *, *, #135, .F. ) ;
#54 =( GEOMETRIC_REPRESENTATION_CONTEXT ( 3 ) GLOBAL_UNCERTAINTY_ASSIGNED_CONTEXT ( ( #56 ) ) GLOBAL_UNIT_ASSIGNED_CONTEXT ( ( #143, #67, #92 ) ) REPRESENTATION_CONTEXT ( 'NONE', 'WORKASPACE' ) );
#55 = VERTEX_POINT ( 'NONE', #33 ) ;
#56 = UNCERTAINTY_MEASURE_WITH_UNIT (LENGTH_MEASURE( 1.000000000000000082E-05 ), #143, 'distance_accuracy_value', 'NONE');
#57 = ORGANIZATION ( 'UNSPECIFIED', 'UNSPECIFIED', '' ) ;
#58 = DIRECTION ( 'NONE',  ( 4.275831445896959482E-31, 1.000000000000000000, 1.224646799147353454E-16 ) ) ;
#59 = AXIS2_PLACEMENT_3D ( 'NONE', #242, #225, #5 ) ;
#60 = CARTESIAN_POINT ( 'NONE',  ( -3.491481338843130200E-15, -1.224646799147353059E-15, -0.9999999999999991118 ) ) ;
#61 = FACE_OUTER_BOUND ( 'NONE', #87, .T. ) ;
#62 = DIRECTION ( 'NONE',  ( 0.0000000000000000000, 1.000000000000000000, 0.0000000000000000000 ) ) ;
#63 = AXIS2_PLACEMENT_3D ( 'NONE', #83, #239, #58 ) ;
#64 = DIRECTION ( 'NONE',  ( -3.491481338843133355E-15, -1.224646799147354045E-15, -1.000000000000000000 ) ) ;
#65 = ORIENTED_EDGE ( 'NONE', *, *, #243, .T. ) ;
#66 = DATE_AND_TIME ( #15, #257 ) ;
#67 =( NAMED_UNIT ( * ) PLANE_ANGLE_UNIT ( ) SI_UNIT ( $, .RADIAN. ) );
#68 = PRODUCT_DEFINITION_FORMATION_WITH_SPECIFIED_SOURCE ( 'ANY', '', #155, .NOT_KNOWN. ) ;
#69 = CARTESIAN_POINT ( 'NONE',  ( -3.491481338843130200E-15, -1.224646799147353059E-15, -0.9999999999999991118 ) ) ;
#70 = CARTESIAN_POINT ( 'NONE',  ( 2.286920276942252663E-13, 1.999999999999992228, 65.50000000000000000 ) ) ;
#71 = ADVANCED_FACE ( 'NONE', ( #26 ), #80, .T. ) ;
#72 = APPROVAL_PERSON_ORGANIZATION ( #252, #169, #235 ) ;
#73 = APPROVAL_ROLE ( '' ) ;
#74 = COORDINATED_UNIVERSAL_TIME_OFFSET ( 1, 0, .AHEAD. ) ;
#75 = ADVANCED_FACE ( 'NONE', ( #162, #222 ), #121, .T. ) ;
#76 = APPROVAL_DATE_TIME ( #258, #169 ) ;
#77 = DATE_AND_TIME ( #262, #185 ) ;
#78 = DESIGN_CONTEXT ( 'detailed design', #17, 'design' ) ;
#79 = DIRECTION ( 'NONE',  ( -4.315809399187085678E-30, 1.000000000000000000, -1.214792350123815205E-15 ) ) ;
#80 = PLANE ( 'NONE',  #240 ) ;
#81 = AXIS2_PLACEMENT_3D ( 'NONE', #25, #64, #79 ) ;
#82 = PERSON ( 'UNSPECIFIED', 'UNSPECIFIED', 'UNSPECIFIED', ('UNSPECIFIED'), ('UNSPECIFIED'), ('UNSPECIFIED') ) ;
#83 = CARTESIAN_POINT ( 'NONE',  ( 0.0000000000000000000, 0.0000000000000000000, 0.0000000000000000000 ) ) ;
#84 = ADVANCED_FACE ( 'NONE', ( #86 ), #151, .T. ) ;
#85 = CIRCLE ( 'NONE', #1, 2.000000000000000000 ) ;
#86 = FACE_OUTER_BOUND ( 'NONE', #90, .T. ) ;
#87 = EDGE_LOOP ( 'NONE', ( #206 ) ) ;
#88 = ADVANCED_FACE ( 'NONE', ( #156, #160 ), #142, .T. ) ;
#89 = DIRECTION ( 'NONE',  ( -3.491481338843133355E-15, -1.224646799147354045E-15, -1.000000000000000000 ) ) ;
#90 = EDGE_LOOP ( 'NONE', ( #191 ) ) ;
#91 = CARTESIAN_POINT ( 'NONE',  ( 9.077851480992146724E-14, 1.784999999999997033, 26.00000000000000000 ) ) ;
#92 =( NAMED_UNIT ( * ) SI_UNIT ( $, .STERADIAN. ) SOLID_ANGLE_UNIT ( ) );
#93 = EDGE_CURVE ( 'NONE', #133, #133, #221, .T. ) ;
#94 = PERSON_AND_ORGANIZATION_ROLE ( 'creator' ) ;
#95 = LOCAL_TIME ( 11, 34, 3.000000000000000000, #210 ) ;
#96 = AXIS2_PLACEMENT_3D ( 'NONE', #60, #139, #180 ) ;
#97 = PERSON_AND_ORGANIZATION_ROLE ( 'classification_officer' ) ;
#98 = PERSON_AND_ORGANIZATION ( #82, #57 ) ;
#99 = DATE_TIME_ROLE ( 'classification_date' ) ;
#100 = CIRCLE ( 'NONE', #20, 1.784999999999981934 ) ;
#101 = CARTESIAN_POINT ( 'NONE',  ( 6.982962677686265448E-14, 2.449293598294707696E-14, 19.99999999999999645 ) ) ;
#102 = DIRECTION ( 'NONE',  ( -4.275831445896958607E-31, -1.000000000000000000, -1.224646799147353207E-16 ) ) ;
#103 = PRODUCT_RELATED_PRODUCT_CATEGORY ( 'detail', '', ( #155 ) ) ;
#104 = EDGE_LOOP ( 'NONE', ( #13 ) ) ;
#105 = DIRECTION ( 'NONE',  ( 0.0000000000000000000, 1.000000000000000000, 0.0000000000000000000 ) ) ;
#106 = FACE_OUTER_BOUND ( 'NONE', #109, .T. ) ;
#107 = AXIS2_PLACEMENT_3D ( 'NONE', #101, #223, #244 ) ;
#108 = CARTESIAN_POINT ( 'NONE',  ( 6.982962677686266711E-14, 1.499759782661850218E-32, 20.00000000000000000 ) ) ;
#109 = EDGE_LOOP ( 'NONE', ( #249 ) ) ;
#110 = DATE_AND_TIME ( #208, #95 ) ;
#111 = EDGE_LOOP ( 'NONE', ( #212 ) ) ;
#112 = EDGE_LOOP ( 'NONE', ( #14 ) ) ;
#113 = EDGE_CURVE ( 'NONE', #34, #34, #117, .T. ) ;
#114 = CARTESIAN_POINT ( 'NONE',  ( 1.810883275189587489E-15, 1.424999999999999822, 0.5186575838293339125 ) ) ;
#115 = ADVANCED_FACE ( 'NONE', ( #106, #125 ), #4, .T. ) ;
#116 = CIRCLE ( 'NONE', #107, 1.784999999999981934 ) ;
#117 = CIRCLE ( 'NONE', #241, 1.500000000000000222 ) ;
#118 = APPROVAL_STATUS ( 'not_yet_approved' ) ;
#119 = EDGE_CURVE ( 'NONE', #213, #213, #100, .T. ) ;
#120 = APPROVAL_PERSON_ORGANIZATION ( #168, #157, #52 ) ;
#121 = CONICAL_SURFACE ( 'NONE', #9, 2.499999999999961364, 0.5235987755982983716 ) ;
#122 = DIRECTION ( 'NONE',  ( -4.275831445896958607E-31, -1.000000000000000000, -1.224646799147353207E-16 ) ) ;
#123 = CARTESIAN_POINT ( 'NONE',  ( 1.810883275189593405E-15, 6.351723498900961903E-16, 0.5186575838293355778 ) ) ;
#124 = CC_DESIGN_PERSON_AND_ORGANIZATION_ASSIGNMENT ( #172, #19, ( #68 ) ) ;
#125 = FACE_OUTER_BOUND ( 'NONE', #231, .T. ) ;
#126 = CARTESIAN_POINT ( 'NONE',  ( 6.982962677686265448E-14, 2.449293598294707696E-14, 19.99999999999999645 ) ) ;
#127 = CARTESIAN_POINT ( 'NONE',  ( 9.207871077052097711E-14, 3.229686413048298485E-14, 26.37239092362736770 ) ) ;
#128 = CARTESIAN_POINT ( 'NONE',  ( 2.304377683636468267E-13, -8.082668874372532400E-15, 66.00000000000000000 ) ) ;
#129 = LOCAL_TIME ( 11, 34, 3.000000000000000000, #153 ) ;
#130 = PERSON_AND_ORGANIZATION_ROLE ( 'creator' ) ;
#131 = ORIENTED_EDGE ( 'NONE', *, *, #243, .F. ) ;
#132 = DIRECTION ( 'NONE',  ( 0.0000000000000000000, 0.0000000000000000000, 1.000000000000000000 ) ) ;
#133 = VERTEX_POINT ( 'NONE', #91 ) ;
#134 = CIRCLE ( 'NONE', #21, 1.424999999999999156 ) ;
#135 = EDGE_CURVE ( 'NONE', #55, #55, #214, .T. ) ;
#136 = CONICAL_SURFACE ( 'NONE', #165, 1.500000000000000222, 0.7853981633974476129 ) ;
#137 = DIRECTION ( 'NONE',  ( 0.0000000000000000000, -1.000000000000000000, 0.0000000000000000000 ) ) ;
#138 = EDGE_CURVE ( 'NONE', #31, #31, #134, .T. ) ;
#139 = DIRECTION ( 'NONE',  ( -3.491481338843133355E-15, -1.224646799147354045E-15, -1.000000000000000000 ) ) ;
#140 = DIRECTION ( 'NONE',  ( 3.491481338843133355E-15, -1.224646799147353207E-16, 1.000000000000000000 ) ) ;
#141 = DIRECTION ( 'NONE',  ( -3.491481338843133355E-15, -1.224646799147354045E-15, -1.000000000000000000 ) ) ;
#142 = CYLINDRICAL_SURFACE ( 'NONE', #96, 1.784999999999981934 ) ;
#143 =( LENGTH_UNIT ( ) NAMED_UNIT ( * ) SI_UNIT ( .MILLI., .METRE. ) );
#144 = AXIS2_PLACEMENT_3D ( 'NONE', #184, #200, #204 ) ;
#145 = FACE_OUTER_BOUND ( 'NONE', #246, .T. ) ;
#146 = EDGE_LOOP ( 'NONE', ( #190 ) ) ;
#147 = VERTEX_POINT ( 'NONE', #254 ) ;
#148 = PERSON_AND_ORGANIZATION_ROLE ( 'design_owner' ) ;
#149 = CYLINDRICAL_SURFACE ( 'NONE', #163, 1.784999999999981934 ) ;
#150 = LOCAL_TIME ( 11, 34, 3.000000000000000000, #218 ) ;
#151 = CONICAL_SURFACE ( 'NONE', #59, 1.424999999999999156, 1.221730476396032161 ) ;
#152 = SHAPE_DEFINITION_REPRESENTATION ( #236, #216 ) ;
#153 = COORDINATED_UNIVERSAL_TIME_OFFSET ( 1, 0, .AHEAD. ) ;
#154 = CARTESIAN_POINT ( 'NONE',  ( 6.982962677686266711E-14, 1.499759782661850218E-32, 20.00000000000000000 ) ) ;
#155 = PRODUCT ( '62851', '62851', '', ( #256 ) ) ;
#156 = FACE_OUTER_BOUND ( 'NONE', #104, .T. ) ;
#157 = APPROVAL ( #250, 'UNSPECIFIED' ) ;
#158 = CC_DESIGN_SECURITY_CLASSIFICATION ( #38, ( #68 ) ) ;
#159 = CIRCLE ( 'NONE', #81, 1.784999999999998810 ) ;
#160 = FACE_OUTER_BOUND ( 'NONE', #112, .T. ) ;
#161 = DIRECTION ( 'NONE',  ( -3.491481338843133355E-15, 1.224646799147353207E-16, -1.000000000000000000 ) ) ;
#162 = FACE_BOUND ( 'NONE', #146, .T. ) ;
#163 = AXIS2_PLACEMENT_3D ( 'NONE', #69, #89, #189 ) ;
#164 = DIRECTION ( 'NONE',  ( 4.930380657631400155E-30, -1.000000000000000000, 1.387778780781467172E-15 ) ) ;
#165 = AXIS2_PLACEMENT_3D ( 'NONE', #177, #263, #248 ) ;
#166 = EDGE_LOOP ( 'NONE', ( #47 ) ) ;
#167 = AXIS2_PLACEMENT_3D ( 'NONE', #127, #224, #41 ) ;
#168 = PERSON_AND_ORGANIZATION ( #82, #57 ) ;
#169 = APPROVAL ( #12, 'UNSPECIFIED' ) ;
#170 = COORDINATED_UNIVERSAL_TIME_OFFSET ( 1, 0, .AHEAD. ) ;
#171 = CARTESIAN_POINT ( 'NONE',  ( 2.479206556189441453E-15, 1.784999999999999698, 0.7100729792274649288 ) ) ;
#172 = PERSON_AND_ORGANIZATION ( #82, #57 ) ;
#173 = AXIS2_PLACEMENT_3D ( 'NONE', #215, #132, #10 ) ;
#174 = APPLICATION_CONTEXT ( 'configuration controlled 3d designs of mechanical parts and assemblies' ) ;
#175 = SECURITY_CLASSIFICATION_LEVEL ( 'unclassified' ) ;
#176 = CC_DESIGN_DATE_AND_TIME_ASSIGNMENT ( #77, #99, ( #38 ) ) ;
#177 = CARTESIAN_POINT ( 'NONE',  ( 2.304377683636468267E-13, -8.082668874372532400E-15, 66.00000000000000000 ) ) ;
#178 = CARTESIAN_POINT ( 'NONE',  ( 2.286920276942252663E-13, -8.021436534415164826E-15, 65.50000000000000000 ) ) ;
#179 = CONICAL_SURFACE ( 'NONE', #197, 1.784999999999998810, 1.082104136236485825 ) ;
#180 = DIRECTION ( 'NONE',  ( -4.315809399187127016E-30, 1.000000000000000000, -1.214792350123826841E-15 ) ) ;
#181 = MANIFOLD_SOLID_BREP ( 'Corps-Déplacer/Copier1[1]', #39 ) ;
#182 = EDGE_LOOP ( 'NONE', ( #8 ) ) ;
#183 = FACE_BOUND ( 'NONE', #182, .T. ) ;
#184 = CARTESIAN_POINT ( 'NONE',  ( 2.304377683636468267E-13, 1.124819836996381437E-32, 66.00000000000000000 ) ) ;
#185 = LOCAL_TIME ( 11, 34, 3.000000000000000000, #74 ) ;
#186 = APPLICATION_PROTOCOL_DEFINITION ( 'international standard', 'config_control_design', 1994, #17 ) ;
#187 = MANIFOLD_SOLID_BREP ( 'Corps-Déplacer/Copier1[2]', #209 ) ;
#188 = EDGE_CURVE ( 'NONE', #147, #147, #116, .T. ) ;
#189 = DIRECTION ( 'NONE',  ( -4.315809399187127016E-30, 1.000000000000000000, -1.214792350123826841E-15 ) ) ;
#190 = ORIENTED_EDGE ( 'NONE', *, *, #93, .F. ) ;
#191 = ORIENTED_EDGE ( 'NONE', *, *, #138, .T. ) ;
#192 = CARTESIAN_POINT ( 'NONE',  ( 2.304377683636468267E-13, 1.499999999999992228, 66.00000000000000000 ) ) ;
#193 = ORIENTED_EDGE ( 'NONE', *, *, #113, .F. ) ;
#194 = VERTEX_POINT ( 'NONE', #171 ) ;
#195 = ADVANCED_FACE ( 'NONE', ( #42 ), #44, .F. ) ;
#196 = CALENDAR_DATE ( 2021, 15, 10 ) ;
#197 = AXIS2_PLACEMENT_3D ( 'NONE', #245, #201, #24 ) ;
#198 = FACE_OUTER_BOUND ( 'NONE', #251, .T. ) ;
#199 = DIRECTION ( 'NONE',  ( -3.491481338843133355E-15, -1.224646799147354045E-15, -1.000000000000000000 ) ) ;
#200 = DIRECTION ( 'NONE',  ( -3.491481338843133355E-15, 1.224646799147353207E-16, -1.000000000000000000 ) ) ;
#201 = DIRECTION ( 'NONE',  ( 3.491481338843133355E-15, 1.224646799147354045E-15, 1.000000000000000000 ) ) ;
#202 = ADVANCED_FACE ( 'NONE', ( #183, #61 ), #179, .T. ) ;
#203 = EDGE_LOOP ( 'NONE', ( #193 ) ) ;
#204 = DIRECTION ( 'NONE',  ( 4.275831445896958607E-31, 1.000000000000000000, 1.224646799147353207E-16 ) ) ;
#205 = CARTESIAN_POINT ( 'NONE',  ( 9.510242230679821638E-14, 3.335743936920782081E-14, 27.23841632741174479 ) ) ;
#206 = ORIENTED_EDGE ( 'NONE', *, *, #40, .T. ) ;
#207 = CC_DESIGN_APPROVAL ( #157, ( #16 ) ) ;
#208 = CALENDAR_DATE ( 2021, 15, 10 ) ;
#209 = CLOSED_SHELL ( 'NONE', ( #71, #84, #202, #88 ) ) ;
#210 = COORDINATED_UNIVERSAL_TIME_OFFSET ( 1, 0, .AHEAD. ) ;
#211 = APPLICATION_PROTOCOL_DEFINITION ( 'international standard', 'config_control_design', 1994, #174 ) ;
#212 = ORIENTED_EDGE ( 'NONE', *, *, #119, .F. ) ;
#213 = VERTEX_POINT ( 'NONE', #35 ) ;
#214 = CIRCLE ( 'NONE', #167, 1.999999999999997335 ) ;
#215 = CARTESIAN_POINT ( 'NONE',  ( 0.0000000000000000000, 0.0000000000000000000, 0.0000000000000000000 ) ) ;
#216 = ADVANCED_BREP_SHAPE_REPRESENTATION ( '62851', ( #181, #187, #173 ), #54 ) ;
#217 = CC_DESIGN_DATE_AND_TIME_ASSIGNMENT ( #110, #11, ( #16 ) ) ;
#218 = COORDINATED_UNIVERSAL_TIME_OFFSET ( 1, 0, .AHEAD. ) ;
#219 = PERSON_AND_ORGANIZATION ( #82, #57 ) ;
#220 = DIRECTION ( 'NONE',  ( 3.491481338843133355E-15, -1.224646799147353207E-16, 1.000000000000000000 ) ) ;
#221 = CIRCLE ( 'NONE', #229, 1.784999999999965281 ) ;
#222 = FACE_OUTER_BOUND ( 'NONE', #253, .T. ) ;
#223 = DIRECTION ( 'NONE',  ( -3.491481338843133355E-15, 1.224646799147353207E-16, -1.000000000000000000 ) ) ;
#224 = DIRECTION ( 'NONE',  ( 3.491481338843133355E-15, 1.224646799147354045E-15, 1.000000000000000000 ) ) ;
#225 = DIRECTION ( 'NONE',  ( 3.491481338843133355E-15, 1.224646799147354045E-15, 1.000000000000000000 ) ) ;
#226 = EDGE_LOOP ( 'NONE', ( #3 ) ) ;
#227 = CC_DESIGN_PERSON_AND_ORGANIZATION_ASSIGNMENT ( #234, #94, ( #68 ) ) ;
#228 = APPROVAL_DATE_TIME ( #66, #157 ) ;
#229 = AXIS2_PLACEMENT_3D ( 'NONE', #46, #141, #28 ) ;
#230 = ORIENTED_EDGE ( 'NONE', *, *, #188, .F. ) ;
#231 = EDGE_LOOP ( 'NONE', ( #65 ) ) ;
#232 = CC_DESIGN_PERSON_AND_ORGANIZATION_ASSIGNMENT ( #48, #130, ( #16 ) ) ;
#233 = VERTEX_POINT ( 'NONE', #70 ) ;
#234 = PERSON_AND_ORGANIZATION ( #82, #57 ) ;
#235 = APPROVAL_ROLE ( '' ) ;
#236 = PRODUCT_DEFINITION_SHAPE ( 'NONE', 'NONE',  #16 ) ;
#237 = DATE_AND_TIME ( #196, #129 ) ;
#238 = APPROVAL_PERSON_ORGANIZATION ( #98, #45, #73 ) ;
#239 = DIRECTION ( 'NONE',  ( -3.491481338843133355E-15, 1.224646799147353207E-16, -1.000000000000000000 ) ) ;
#240 = AXIS2_PLACEMENT_3D ( 'NONE', #108, #140, #102 ) ;
#241 = AXIS2_PLACEMENT_3D ( 'NONE', #128, #43, #105 ) ;
#242 = CARTESIAN_POINT ( 'NONE',  ( 1.810883275189593405E-15, 6.351723498900961903E-16, 0.5186575838293355778 ) ) ;
#243 = EDGE_CURVE ( 'NONE', #233, #233, #85, .T. ) ;
#244 = DIRECTION ( 'NONE',  ( 0.0000000000000000000, -1.000000000000000000, 0.0000000000000000000 ) ) ;
#245 = CARTESIAN_POINT ( 'NONE',  ( 2.479206556189449342E-15, 8.695886011719430528E-16, 0.7100729792274670382 ) ) ;
#246 = EDGE_LOOP ( 'NONE', ( #230 ) ) ;
#247 = CC_DESIGN_APPROVAL ( #169, ( #68 ) ) ;
#248 = DIRECTION ( 'NONE',  ( 0.0000000000000000000, 1.000000000000000000, 0.0000000000000000000 ) ) ;
#249 = ORIENTED_EDGE ( 'NONE', *, *, #135, .T. ) ;
#250 = APPROVAL_STATUS ( 'not_yet_approved' ) ;
#251 = EDGE_LOOP ( 'NONE', ( #131 ) ) ;
#252 = PERSON_AND_ORGANIZATION ( #82, #57 ) ;
#253 = EDGE_LOOP ( 'NONE', ( #53 ) ) ;
#254 = CARTESIAN_POINT ( 'NONE',  ( 6.982962677686265448E-14, -1.784999999999957510, 19.99999999999999645 ) ) ;
#255 = EDGE_LOOP ( 'NONE', ( #51 ) ) ;
#256 = MECHANICAL_CONTEXT ( 'NONE', #174, 'mechanical' ) ;
#257 = LOCAL_TIME ( 11, 34, 3.000000000000000000, #170 ) ;
#258 = DATE_AND_TIME ( #22, #150 ) ;
#259 = AXIS2_PLACEMENT_3D ( 'NONE', #154, #220, #122 ) ;
#260 = APPROVAL_DATE_TIME ( #237, #45 ) ;
#261 = ADVANCED_FACE ( 'NONE', ( #50, #145 ), #149, .T. ) ;
#262 = CALENDAR_DATE ( 2021, 15, 10 ) ;
#263 = DIRECTION ( 'NONE',  ( -3.491481338843133355E-15, 1.224646799147353207E-16, -1.000000000000000000 ) ) ;
ENDSEC;
END-ISO-10303-21;
