ISO-10303-21;
HEADER;
FILE_DESCRIPTION (( 'STEP AP203' ),
    '1' );
FILE_NAME ('62850.step',
    '2021-10-15T09:34:02',
    ( '' ),
    ( '' ),
    'SwSTEP 2.0',
    'SolidWorks 2019',
    '' );
FILE_SCHEMA (( 'CONFIG_CONTROL_DESIGN' ));
ENDSEC;

DATA;
#1 = ADVANCED_FACE ( 'NONE', ( #165, #226 ), #37, .T. ) ;
#2 = DIRECTION ( 'NONE',  ( 0.0000000000000000000, 1.000000000000000000, 0.0000000000000000000 ) ) ;
#3 = FACE_BOUND ( 'NONE', #122, .T. ) ;
#4 = EDGE_LOOP ( 'NONE', ( #102 ) ) ;
#5 = DIRECTION ( 'NONE',  ( 6.162975822039163138E-30, -1.000000000000000000, 1.734723475976809461E-15 ) ) ;
#6 = PRODUCT ( '62850', '62850', '', ( #169 ) ) ;
#7 = VERTEX_POINT ( 'NONE', #251 ) ;
#8 = AXIS2_PLACEMENT_3D ( 'NONE', #243, #126, #103 ) ;
#9 =( GEOMETRIC_REPRESENTATION_CONTEXT ( 3 ) GLOBAL_UNCERTAINTY_ASSIGNED_CONTEXT ( ( #138 ) ) GLOBAL_UNIT_ASSIGNED_CONTEXT ( ( #233, #49, #88 ) ) REPRESENTATION_CONTEXT ( 'NONE', 'WORKASPACE' ) );
#10 = VERTEX_POINT ( 'NONE', #25 ) ;
#11 = CARTESIAN_POINT ( 'NONE',  ( 2.286920276942252663E-13, 1.999999999999992228, 65.50000000000000000 ) ) ;
#12 = ADVANCED_FACE ( 'NONE', ( #100 ), #121, .F. ) ;
#13 = CARTESIAN_POINT ( 'NONE',  ( 2.365332374543503240E-15, 1.699999999999999956, 0.6774581173408855683 ) ) ;
#14 = PERSON_AND_ORGANIZATION ( #36, #190 ) ;
#15 = CC_DESIGN_PERSON_AND_ORGANIZATION_ASSIGNMENT ( #109, #150, ( #6 ) ) ;
#16 = DATE_AND_TIME ( #254, #173 ) ;
#17 = CIRCLE ( 'NONE', #38, 1.349999999999999423 ) ;
#18 = APPROVAL_STATUS ( 'not_yet_approved' ) ;
#19 = PERSON_AND_ORGANIZATION_ROLE ( 'creator' ) ;
#20 = CIRCLE ( 'NONE', #167, 2.000000000000000000 ) ;
#21 = DIRECTION ( 'NONE',  ( 3.491481338843133355E-15, 1.224646799147354045E-15, 1.000000000000000000 ) ) ;
#22 = DIRECTION ( 'NONE',  ( -4.275831445896958607E-31, -1.000000000000000000, -1.224646799147353207E-16 ) ) ;
#23 = FACE_BOUND ( 'NONE', #39, .T. ) ;
#24 = DIRECTION ( 'NONE',  ( 4.305019875689118074E-30, -1.000000000000000000, 1.211755369248505698E-15 ) ) ;
#25 = CARTESIAN_POINT ( 'NONE',  ( 9.259274173168815916E-14, -1.999999999999964917, 26.51961524227072786 ) ) ;
#26 = AXIS2_PLACEMENT_3D ( 'NONE', #166, #159, #238 ) ;
#27 = APPROVAL_PERSON_ORGANIZATION ( #259, #92, #215 ) ;
#28 = CALENDAR_DATE ( 2021, 15, 10 ) ;
#29 = CARTESIAN_POINT ( 'NONE',  ( -3.491481338843130200E-15, -1.224646799147353059E-15, -0.9999999999999991118 ) ) ;
#30 = AXIS2_PLACEMENT_3D ( 'NONE', #66, #65, #209 ) ;
#31 = PERSON_AND_ORGANIZATION_ROLE ( 'creator' ) ;
#32 = AXIS2_PLACEMENT_3D ( 'NONE', #78, #101, #22 ) ;
#33 = COORDINATED_UNIVERSAL_TIME_OFFSET ( 1, 0, .AHEAD. ) ;
#34 = CLOSED_SHELL ( 'NONE', ( #224, #55, #12, #234, #131, #249 ) ) ;
#35 = CC_DESIGN_PERSON_AND_ORGANIZATION_ASSIGNMENT ( #69, #255, ( #61 ) ) ;
#36 = PERSON ( 'UNSPECIFIED', 'UNSPECIFIED', 'UNSPECIFIED', ('UNSPECIFIED'), ('UNSPECIFIED'), ('UNSPECIFIED') ) ;
#37 = CYLINDRICAL_SURFACE ( 'NONE', #8, 1.699999999999981970 ) ;
#38 = AXIS2_PLACEMENT_3D ( 'NONE', #185, #191, #232 ) ;
#39 = EDGE_LOOP ( 'NONE', ( #220 ) ) ;
#40 = DIRECTION ( 'NONE',  ( 3.491481338843133355E-15, 1.224646799147354045E-15, 1.000000000000000000 ) ) ;
#41 = EDGE_LOOP ( 'NONE', ( #142 ) ) ;
#42 = CYLINDRICAL_SURFACE ( 'NONE', #219, 1.999999999999997335 ) ;
#43 = EDGE_LOOP ( 'NONE', ( #85 ) ) ;
#44 = FACE_OUTER_BOUND ( 'NONE', #183, .T. ) ;
#45 = CONICAL_SURFACE ( 'NONE', #246, 2.499999999999961364, 0.5235987755982980385 ) ;
#46 = EDGE_CURVE ( 'NONE', #68, #68, #162, .T. ) ;
#47 = CC_DESIGN_PERSON_AND_ORGANIZATION_ASSIGNMENT ( #158, #19, ( #61 ) ) ;
#48 = DIRECTION ( 'NONE',  ( -3.491481338843133355E-15, 1.224646799147353207E-16, -1.000000000000000000 ) ) ;
#49 =( NAMED_UNIT ( * ) PLANE_ANGLE_UNIT ( ) SI_UNIT ( $, .RADIAN. ) );
#50 = CARTESIAN_POINT ( 'NONE',  ( 9.077851480992146724E-14, 1.699999999999996847, 26.00000000000000000 ) ) ;
#51 = APPROVAL_PERSON_ORGANIZATION ( #250, #116, #192 ) ;
#52 = COORDINATED_UNIVERSAL_TIME_OFFSET ( 1, 0, .AHEAD. ) ;
#53 = DIRECTION ( 'NONE',  ( -4.275831445896958607E-31, -1.000000000000000000, -1.224646799147353207E-16 ) ) ;
#54 = AXIS2_PLACEMENT_3D ( 'NONE', #29, #252, #94 ) ;
#55 = ADVANCED_FACE ( 'NONE', ( #44, #3 ), #241, .T. ) ;
#56 = AXIS2_PLACEMENT_3D ( 'NONE', #218, #80, #87 ) ;
#57 = ORIENTED_EDGE ( 'NONE', *, *, #216, .T. ) ;
#58 = FACE_OUTER_BOUND ( 'NONE', #41, .T. ) ;
#59 = ADVANCED_FACE ( 'NONE', ( #60, #201 ), #113, .T. ) ;
#60 = FACE_BOUND ( 'NONE', #75, .T. ) ;
#61 = PRODUCT_DEFINITION_FORMATION_WITH_SPECIFIED_SOURCE ( 'ANY', '', #6, .NOT_KNOWN. ) ;
#62 = EDGE_LOOP ( 'NONE', ( #57 ) ) ;
#63 = DIRECTION ( 'NONE',  ( 0.0000000000000000000, 1.000000000000000000, 0.0000000000000000000 ) ) ;
#64 = ORIENTED_EDGE ( 'NONE', *, *, #128, .T. ) ;
#65 = DIRECTION ( 'NONE',  ( -3.491481338843133355E-15, 1.224646799147353207E-16, -1.000000000000000000 ) ) ;
#66 = CARTESIAN_POINT ( 'NONE',  ( 6.982962677686265448E-14, 2.449293598294707696E-14, 19.99999999999999645 ) ) ;
#67 = CARTESIAN_POINT ( 'NONE',  ( 6.982962677686265448E-14, -1.699999999999957323, 19.99999999999999645 ) ) ;
#68 = VERTEX_POINT ( 'NONE', #212 ) ;
#69 = PERSON_AND_ORGANIZATION ( #36, #190 ) ;
#70 = FACE_OUTER_BOUND ( 'NONE', #4, .T. ) ;
#71 = DATE_AND_TIME ( #196, #257 ) ;
#72 = EDGE_CURVE ( 'NONE', #93, #93, #89, .T. ) ;
#73 = CIRCLE ( 'NONE', #118, 1.699999999999981970 ) ;
#74 = COORDINATED_UNIVERSAL_TIME_OFFSET ( 1, 0, .AHEAD. ) ;
#75 = EDGE_LOOP ( 'NONE', ( #139 ) ) ;
#76 = DIRECTION ( 'NONE',  ( -3.491481338843133355E-15, 1.224646799147353207E-16, -1.000000000000000000 ) ) ;
#77 = CC_DESIGN_PERSON_AND_ORGANIZATION_ASSIGNMENT ( #14, #236, ( #231 ) ) ;
#78 = CARTESIAN_POINT ( 'NONE',  ( 6.982962677686266711E-14, 1.499759782661850218E-32, 20.00000000000000000 ) ) ;
#79 = AXIS2_PLACEMENT_3D ( 'NONE', #263, #48, #2 ) ;
#80 = DIRECTION ( 'NONE',  ( -3.491481338843133355E-15, -1.224646799147354045E-15, -1.000000000000000000 ) ) ;
#81 = AXIS2_PLACEMENT_3D ( 'NONE', #112, #194, #53 ) ;
#82 = EDGE_LOOP ( 'NONE', ( #239 ) ) ;
#83 = CARTESIAN_POINT ( 'NONE',  ( 2.304377683636468267E-13, 1.124819836996381437E-32, 66.00000000000000000 ) ) ;
#84 = CC_DESIGN_DATE_AND_TIME_ASSIGNMENT ( #71, #137, ( #136 ) ) ;
#85 = ORIENTED_EDGE ( 'NONE', *, *, #230, .T. ) ;
#86 = ADVANCED_BREP_SHAPE_REPRESENTATION ( '62850', ( #174, #91, #156 ), #9 ) ;
#87 = DIRECTION ( 'NONE',  ( -7.250559790634448385E-30, 1.000000000000000000, -2.040851148208050202E-15 ) ) ;
#88 =( NAMED_UNIT ( * ) SI_UNIT ( $, .STERADIAN. ) SOLID_ANGLE_UNIT ( ) );
#89 = CIRCLE ( 'NONE', #56, 1.699999999999965095 ) ;
#90 = FACE_OUTER_BOUND ( 'NONE', #106, .T. ) ;
#91 = MANIFOLD_SOLID_BREP ( 'Corps-Déplacer/Copier1[2]', #125 ) ;
#92 = APPROVAL ( #18, 'UNSPECIFIED' ) ;
#93 = VERTEX_POINT ( 'NONE', #50 ) ;
#94 = DIRECTION ( 'NONE',  ( -4.078439882231836929E-30, 1.000000000000000000, -1.275531967630018755E-15 ) ) ;
#95 = APPLICATION_CONTEXT ( 'configuration controlled 3d designs of mechanical parts and assemblies' ) ;
#96 = APPROVAL_STATUS ( 'not_yet_approved' ) ;
#97 = LOCAL_TIME ( 11, 34, 2.000000000000000000, #52 ) ;
#98 = SHAPE_DEFINITION_REPRESENTATION ( #199, #86 ) ;
#99 = DATE_AND_TIME ( #237, #200 ) ;
#100 = FACE_OUTER_BOUND ( 'NONE', #117, .T. ) ;
#101 = DIRECTION ( 'NONE',  ( 3.491481338843133355E-15, -1.224646799147353207E-16, 1.000000000000000000 ) ) ;
#102 = ORIENTED_EDGE ( 'NONE', *, *, #110, .F. ) ;
#103 = DIRECTION ( 'NONE',  ( -4.078439882231836929E-30, 1.000000000000000000, -1.275531967630018755E-15 ) ) ;
#104 = ORIENTED_EDGE ( 'NONE', *, *, #72, .T. ) ;
#105 = DIRECTION ( 'NONE',  ( 4.275831445896959482E-31, 1.000000000000000000, 1.224646799147353454E-16 ) ) ;
#106 = EDGE_LOOP ( 'NONE', ( #104 ) ) ;
#107 = DIRECTION ( 'NONE',  ( 4.930380657631400155E-30, -1.000000000000000000, 1.387778780781467172E-15 ) ) ;
#108 = CARTESIAN_POINT ( 'NONE',  ( 0.0000000000000000000, 0.0000000000000000000, 0.0000000000000000000 ) ) ;
#109 = PERSON_AND_ORGANIZATION ( #36, #190 ) ;
#110 = EDGE_CURVE ( 'NONE', #152, #152, #73, .T. ) ;
#111 = APPROVAL_STATUS ( 'not_yet_approved' ) ;
#112 = CARTESIAN_POINT ( 'NONE',  ( 6.982962677686266711E-14, 1.499759782661850218E-32, 20.00000000000000000 ) ) ;
#113 = CONICAL_SURFACE ( 'NONE', #130, 1.699999999999998845, 1.082104136236485825 ) ;
#114 = APPROVAL_ROLE ( '' ) ;
#115 = EDGE_LOOP ( 'NONE', ( #203 ) ) ;
#116 = APPROVAL ( #111, 'UNSPECIFIED' ) ;
#117 = EDGE_LOOP ( 'NONE', ( #177 ) ) ;
#118 = AXIS2_PLACEMENT_3D ( 'NONE', #240, #76, #245 ) ;
#119 = DIRECTION ( 'NONE',  ( -3.491481338843133355E-15, 1.224646799147353207E-16, -1.000000000000000000 ) ) ;
#120 = ORIENTED_EDGE ( 'NONE', *, *, #202, .T. ) ;
#121 = PLANE ( 'NONE',  #189 ) ;
#122 = EDGE_LOOP ( 'NONE', ( #124 ) ) ;
#123 = CARTESIAN_POINT ( 'NONE',  ( 0.0000000000000000000, 0.0000000000000000000, 0.0000000000000000000 ) ) ;
#124 = ORIENTED_EDGE ( 'NONE', *, *, #46, .T. ) ;
#125 = CLOSED_SHELL ( 'NONE', ( #181, #157, #59, #1 ) ) ;
#126 = DIRECTION ( 'NONE',  ( -3.491481338843133355E-15, -1.224646799147354045E-15, -1.000000000000000000 ) ) ;
#127 = FACE_OUTER_BOUND ( 'NONE', #43, .T. ) ;
#128 = EDGE_CURVE ( 'NONE', #129, #129, #227, .T. ) ;
#129 = VERTEX_POINT ( 'NONE', #13 ) ;
#130 = AXIS2_PLACEMENT_3D ( 'NONE', #208, #40, #24 ) ;
#131 = ADVANCED_FACE ( 'NONE', ( #23, #164 ), #45, .T. ) ;
#132 = DATE_AND_TIME ( #28, #97 ) ;
#133 = CIRCLE ( 'NONE', #195, 1.999999999999997335 ) ;
#134 = CC_DESIGN_APPROVAL ( #116, ( #136 ) ) ;
#135 = COORDINATED_UNIVERSAL_TIME_OFFSET ( 1, 0, .AHEAD. ) ;
#136 = PRODUCT_DEFINITION ( 'UNKNOWN', '', #61, #179 ) ;
#137 = DATE_TIME_ROLE ( 'creation_date' ) ;
#138 = UNCERTAINTY_MEASURE_WITH_UNIT (LENGTH_MEASURE( 1.000000000000000082E-05 ), #233, 'distance_accuracy_value', 'NONE');
#139 = ORIENTED_EDGE ( 'NONE', *, *, #230, .F. ) ;
#140 = DIRECTION ( 'NONE',  ( 3.491481338843133355E-15, 1.224646799147354045E-15, 1.000000000000000000 ) ) ;
#141 = CC_DESIGN_APPROVAL ( #214, ( #231 ) ) ;
#142 = ORIENTED_EDGE ( 'NONE', *, *, #202, .F. ) ;
#143 = FACE_OUTER_BOUND ( 'NONE', #82, .T. ) ;
#144 = DIRECTION ( 'NONE',  ( 4.279844320860526998E-30, -1.000000000000000000, 1.204669080539450182E-15 ) ) ;
#145 = CONICAL_SURFACE ( 'NONE', #217, 1.349999999999999201, 1.221730476396031939 ) ;
#146 = CARTESIAN_POINT ( 'NONE',  ( 1.715573629126984326E-15, 6.017422262116706148E-16, 0.4913598162593708629 ) ) ;
#147 = CARTESIAN_POINT ( 'NONE',  ( 6.982962677686265448E-14, -1.699999999999957323, 19.99999999999999645 ) ) ;
#148 = APPLICATION_CONTEXT ( 'configuration controlled 3d designs of mechanical parts and assemblies' ) ;
#149 = APPLICATION_PROTOCOL_DEFINITION ( 'international standard', 'config_control_design', 1994, #148 ) ;
#150 = PERSON_AND_ORGANIZATION_ROLE ( 'design_owner' ) ;
#151 = LOCAL_TIME ( 11, 34, 2.000000000000000000, #33 ) ;
#152 = VERTEX_POINT ( 'NONE', #147 ) ;
#153 = DATE_AND_TIME ( #198, #151 ) ;
#154 = CYLINDRICAL_SURFACE ( 'NONE', #54, 1.699999999999981970 ) ;
#155 = SECURITY_CLASSIFICATION_LEVEL ( 'unclassified' ) ;
#156 = AXIS2_PLACEMENT_3D ( 'NONE', #108, #210, #188 ) ;
#157 = ADVANCED_FACE ( 'NONE', ( #127 ), #145, .T. ) ;
#158 = PERSON_AND_ORGANIZATION ( #36, #190 ) ;
#159 = DIRECTION ( 'NONE',  ( -3.491481338843133355E-15, -1.224646799147354045E-15, -1.000000000000000000 ) ) ;
#160 = EDGE_LOOP ( 'NONE', ( #120 ) ) ;
#161 = CARTESIAN_POINT ( 'NONE',  ( 2.286920276942252663E-13, -8.021436534415164826E-15, 65.50000000000000000 ) ) ;
#162 = CIRCLE ( 'NONE', #184, 1.500000000000000222 ) ;
#163 = APPROVAL_PERSON_ORGANIZATION ( #258, #214, #114 ) ;
#164 = FACE_OUTER_BOUND ( 'NONE', #206, .T. ) ;
#165 = FACE_OUTER_BOUND ( 'NONE', #160, .T. ) ;
#166 = CARTESIAN_POINT ( 'NONE',  ( 2.365332374543510339E-15, 8.296469149579106665E-16, 0.6774581173408875667 ) ) ;
#167 = AXIS2_PLACEMENT_3D ( 'NONE', #161, #242, #63 ) ;
#168 = APPLICATION_PROTOCOL_DEFINITION ( 'international standard', 'config_control_design', 1994, #95 ) ;
#169 = MECHANICAL_CONTEXT ( 'NONE', #95, 'mechanical' ) ;
#170 = APPROVAL_DATE_TIME ( #132, #116 ) ;
#171 = PERSON_AND_ORGANIZATION ( #36, #190 ) ;
#172 = APPROVAL_DATE_TIME ( #16, #92 ) ;
#173 = LOCAL_TIME ( 11, 34, 2.000000000000000000, #135 ) ;
#174 = MANIFOLD_SOLID_BREP ( 'Corps-Déplacer/Copier1[1]', #34 ) ;
#175 = EDGE_CURVE ( 'NONE', #10, #10, #133, .T. ) ;
#176 = CIRCLE ( 'NONE', #30, 1.699999999999981970 ) ;
#177 = ORIENTED_EDGE ( 'NONE', *, *, #46, .F. ) ;
#178 = CARTESIAN_POINT ( 'NONE',  ( 9.561645326796539843E-14, 3.353773715979105782E-14, 27.38564064605510140 ) ) ;
#179 = DESIGN_CONTEXT ( 'detailed design', #148, 'design' ) ;
#180 = CARTESIAN_POINT ( 'NONE',  ( 2.304377683636468267E-13, -8.082668874372532400E-15, 66.00000000000000000 ) ) ;
#181 = ADVANCED_FACE ( 'NONE', ( #58 ), #262, .T. ) ;
#182 = DIRECTION ( 'NONE',  ( 4.275831445896958607E-31, 1.000000000000000000, 1.224646799147353207E-16 ) ) ;
#183 = EDGE_LOOP ( 'NONE', ( #261 ) ) ;
#184 = AXIS2_PLACEMENT_3D ( 'NONE', #180, #119, #221 ) ;
#185 = CARTESIAN_POINT ( 'NONE',  ( 1.715573629126984326E-15, 6.017422262116706148E-16, 0.4913598162593708629 ) ) ;
#186 = ORIENTED_EDGE ( 'NONE', *, *, #175, .F. ) ;
#187 = CARTESIAN_POINT ( 'NONE',  ( 9.259274173168814654E-14, 3.247716192106622185E-14, 26.51961524227072431 ) ) ;
#188 = DIRECTION ( 'NONE',  ( 1.000000000000000000, 0.0000000000000000000, 0.0000000000000000000 ) ) ;
#189 = AXIS2_PLACEMENT_3D ( 'NONE', #83, #228, #182 ) ;
#190 = ORGANIZATION ( 'UNSPECIFIED', 'UNSPECIFIED', '' ) ;
#191 = DIRECTION ( 'NONE',  ( -3.491481338843133355E-15, -1.224646799147354045E-15, -1.000000000000000000 ) ) ;
#192 = APPROVAL_ROLE ( '' ) ;
#193 = VERTEX_POINT ( 'NONE', #67 ) ;
#194 = DIRECTION ( 'NONE',  ( 3.491481338843133355E-15, -1.224646799147353207E-16, 1.000000000000000000 ) ) ;
#195 = AXIS2_PLACEMENT_3D ( 'NONE', #187, #204, #5 ) ;
#196 = CALENDAR_DATE ( 2021, 15, 10 ) ;
#197 = COORDINATED_UNIVERSAL_TIME_OFFSET ( 1, 0, .AHEAD. ) ;
#198 = CALENDAR_DATE ( 2021, 15, 10 ) ;
#199 = PRODUCT_DEFINITION_SHAPE ( 'NONE', 'NONE',  #136 ) ;
#200 = LOCAL_TIME ( 11, 34, 2.000000000000000000, #74 ) ;
#201 = FACE_OUTER_BOUND ( 'NONE', #244, .T. ) ;
#202 = EDGE_CURVE ( 'NONE', #193, #193, #176, .T. ) ;
#203 = ORIENTED_EDGE ( 'NONE', *, *, #110, .T. ) ;
#204 = DIRECTION ( 'NONE',  ( 3.491481338843133355E-15, 1.224646799147354045E-15, 1.000000000000000000 ) ) ;
#205 = DIRECTION ( 'NONE',  ( -3.491481338843133355E-15, 1.224646799147353207E-16, -1.000000000000000000 ) ) ;
#206 = EDGE_LOOP ( 'NONE', ( #186 ) ) ;
#207 = PRODUCT_RELATED_PRODUCT_CATEGORY ( 'detail', '', ( #6 ) ) ;
#208 = CARTESIAN_POINT ( 'NONE',  ( 2.365332374543510339E-15, 8.296469149579106665E-16, 0.6774581173408875667 ) ) ;
#209 = DIRECTION ( 'NONE',  ( 0.0000000000000000000, -1.000000000000000000, 0.0000000000000000000 ) ) ;
#210 = DIRECTION ( 'NONE',  ( 0.0000000000000000000, 0.0000000000000000000, 1.000000000000000000 ) ) ;
#211 = CC_DESIGN_SECURITY_CLASSIFICATION ( #231, ( #61 ) ) ;
#212 = CARTESIAN_POINT ( 'NONE',  ( 2.304377683636468267E-13, 1.499999999999992228, 66.00000000000000000 ) ) ;
#213 = VERTEX_POINT ( 'NONE', #11 ) ;
#214 = APPROVAL ( #96, 'UNSPECIFIED' ) ;
#215 = APPROVAL_ROLE ( '' ) ;
#216 = EDGE_CURVE ( 'NONE', #213, #213, #20, .T. ) ;
#217 = AXIS2_PLACEMENT_3D ( 'NONE', #146, #140, #144 ) ;
#218 = CARTESIAN_POINT ( 'NONE',  ( 9.077851480992147986E-14, 3.184081677783120794E-14, 26.00000000000000355 ) ) ;
#219 = AXIS2_PLACEMENT_3D ( 'NONE', #123, #205, #105 ) ;
#220 = ORIENTED_EDGE ( 'NONE', *, *, #72, .F. ) ;
#221 = DIRECTION ( 'NONE',  ( 0.0000000000000000000, 1.000000000000000000, 0.0000000000000000000 ) ) ;
#222 = ORIENTED_EDGE ( 'NONE', *, *, #128, .F. ) ;
#223 = FACE_OUTER_BOUND ( 'NONE', #62, .T. ) ;
#224 = ADVANCED_FACE ( 'NONE', ( #143, #223 ), #42, .T. ) ;
#225 = EDGE_LOOP ( 'NONE', ( #222 ) ) ;
#226 = FACE_OUTER_BOUND ( 'NONE', #225, .T. ) ;
#227 = CIRCLE ( 'NONE', #26, 1.699999999999999067 ) ;
#228 = DIRECTION ( 'NONE',  ( -3.491481338843133355E-15, 1.224646799147353207E-16, -1.000000000000000000 ) ) ;
#229 = FACE_OUTER_BOUND ( 'NONE', #115, .T. ) ;
#230 = EDGE_CURVE ( 'NONE', #7, #7, #17, .T. ) ;
#231 = SECURITY_CLASSIFICATION ( '', '', #155 ) ;
#232 = DIRECTION ( 'NONE',  ( -4.279844320860526298E-30, 1.000000000000000000, -1.204669080539449985E-15 ) ) ;
#233 =( LENGTH_UNIT ( ) NAMED_UNIT ( * ) SI_UNIT ( .MILLI., .METRE. ) );
#234 = ADVANCED_FACE ( 'NONE', ( #90, #70 ), #154, .T. ) ;
#235 = APPROVAL_DATE_TIME ( #153, #214 ) ;
#236 = PERSON_AND_ORGANIZATION_ROLE ( 'classification_officer' ) ;
#237 = CALENDAR_DATE ( 2021, 15, 10 ) ;
#238 = DIRECTION ( 'NONE',  ( -4.305019875689118074E-30, 1.000000000000000000, -1.211755369248505698E-15 ) ) ;
#239 = ORIENTED_EDGE ( 'NONE', *, *, #175, .T. ) ;
#240 = CARTESIAN_POINT ( 'NONE',  ( 6.982962677686265448E-14, 2.449293598294707696E-14, 19.99999999999999645 ) ) ;
#241 = CONICAL_SURFACE ( 'NONE', #79, 1.500000000000000222, 0.7853981633974476129 ) ;
#242 = DIRECTION ( 'NONE',  ( -3.491481338843133355E-15, 1.224646799147353207E-16, -1.000000000000000000 ) ) ;
#243 = CARTESIAN_POINT ( 'NONE',  ( -3.491481338843130200E-15, -1.224646799147353059E-15, -0.9999999999999991118 ) ) ;
#244 = EDGE_LOOP ( 'NONE', ( #64 ) ) ;
#245 = DIRECTION ( 'NONE',  ( 0.0000000000000000000, -1.000000000000000000, 0.0000000000000000000 ) ) ;
#246 = AXIS2_PLACEMENT_3D ( 'NONE', #178, #21, #107 ) ;
#247 = CC_DESIGN_APPROVAL ( #92, ( #61 ) ) ;
#248 = PLANE ( 'NONE',  #81 ) ;
#249 = ADVANCED_FACE ( 'NONE', ( #229 ), #248, .F. ) ;
#250 = PERSON_AND_ORGANIZATION ( #36, #190 ) ;
#251 = CARTESIAN_POINT ( 'NONE',  ( 1.715573629126978607E-15, 1.350000000000000089, 0.4913598162593692531 ) ) ;
#252 = DIRECTION ( 'NONE',  ( -3.491481338843133355E-15, -1.224646799147354045E-15, -1.000000000000000000 ) ) ;
#253 = CC_DESIGN_DATE_AND_TIME_ASSIGNMENT ( #99, #256, ( #231 ) ) ;
#254 = CALENDAR_DATE ( 2021, 15, 10 ) ;
#255 = PERSON_AND_ORGANIZATION_ROLE ( 'design_supplier' ) ;
#256 = DATE_TIME_ROLE ( 'classification_date' ) ;
#257 = LOCAL_TIME ( 11, 34, 2.000000000000000000, #197 ) ;
#258 = PERSON_AND_ORGANIZATION ( #36, #190 ) ;
#259 = PERSON_AND_ORGANIZATION ( #36, #190 ) ;
#260 = CC_DESIGN_PERSON_AND_ORGANIZATION_ASSIGNMENT ( #171, #31, ( #136 ) ) ;
#261 = ORIENTED_EDGE ( 'NONE', *, *, #216, .F. ) ;
#262 = PLANE ( 'NONE',  #32 ) ;
#263 = CARTESIAN_POINT ( 'NONE',  ( 2.304377683636468267E-13, -8.082668874372532400E-15, 66.00000000000000000 ) ) ;
ENDSEC;
END-ISO-10303-21;
