ISO-10303-21;
HEADER;
FILE_DESCRIPTION (( 'STEP AP203' ),
    '1' );
FILE_NAME ('62849.step',
    '2021-10-15T09:34:02',
    ( '' ),
    ( '' ),
    'SwSTEP 2.0',
    'SolidWorks 2019',
    '' );
FILE_SCHEMA (( 'CONFIG_CONTROL_DESIGN' ));
ENDSEC;

DATA;
#1 = CC_DESIGN_PERSON_AND_ORGANIZATION_ASSIGNMENT ( #242, #214, ( #197 ) ) ;
#2 = CALENDAR_DATE ( 2021, 15, 10 ) ;
#3 = CYLINDRICAL_SURFACE ( 'NONE', #94, 1.999999999999997335 ) ;
#4 = FACE_OUTER_BOUND ( 'NONE', #207, .T. ) ;
#5 = CIRCLE ( 'NONE', #230, 1.649999999999999023 ) ;
#6 = CARTESIAN_POINT ( 'NONE',  ( 0.0000000000000000000, 0.0000000000000000000, 0.0000000000000000000 ) ) ;
#7 = ADVANCED_FACE ( 'NONE', ( #147 ), #30, .T. ) ;
#8 = FACE_OUTER_BOUND ( 'NONE', #215, .T. ) ;
#9 = CARTESIAN_POINT ( 'NONE',  ( 2.287151153564316824E-15, 8.022246340594178726E-16, 0.6550661256926955112 ) ) ;
#10 = DIRECTION ( 'NONE',  ( 0.0000000000000000000, 0.0000000000000000000, 1.000000000000000000 ) ) ;
#11 = DIRECTION ( 'NONE',  ( 4.202028969572154073E-30, -1.000000000000000000, 1.248475228922702948E-15 ) ) ;
#12 = ORIENTED_EDGE ( 'NONE', *, *, #39, .T. ) ;
#13 = APPLICATION_PROTOCOL_DEFINITION ( 'international standard', 'config_control_design', 1994, #38 ) ;
#14 = DATE_AND_TIME ( #2, #62 ) ;
#15 = CALENDAR_DATE ( 2021, 15, 10 ) ;
#16 = EDGE_LOOP ( 'NONE', ( #217 ) ) ;
#17 = ORIENTED_EDGE ( 'NONE', *, *, #81, .F. ) ;
#18 = APPROVAL_PERSON_ORGANIZATION ( #261, #204, #245 ) ;
#19 = ORIENTED_EDGE ( 'NONE', *, *, #106, .F. ) ;
#20 = DIRECTION ( 'NONE',  ( 0.0000000000000000000, 1.000000000000000000, 0.0000000000000000000 ) ) ;
#21 = EDGE_CURVE ( 'NONE', #66, #66, #254, .T. ) ;
#22 =( GEOMETRIC_REPRESENTATION_CONTEXT ( 3 ) GLOBAL_UNCERTAINTY_ASSIGNED_CONTEXT ( ( #90 ) ) GLOBAL_UNIT_ASSIGNED_CONTEXT ( ( #183, #255, #33 ) ) REPRESENTATION_CONTEXT ( 'NONE', 'WORKASPACE' ) );
#23 = CYLINDRICAL_SURFACE ( 'NONE', #118, 1.649999999999981704 ) ;
#24 = DIRECTION ( 'NONE',  ( -3.491481338843133355E-15, -1.224646799147354045E-15, -1.000000000000000000 ) ) ;
#25 = CC_DESIGN_PERSON_AND_ORGANIZATION_ASSIGNMENT ( #235, #133, ( #218 ) ) ;
#26 = FACE_OUTER_BOUND ( 'NONE', #244, .T. ) ;
#27 = DIRECTION ( 'NONE',  ( 0.0000000000000000000, 1.000000000000000000, 0.0000000000000000000 ) ) ;
#28 = CARTESIAN_POINT ( 'NONE',  ( 2.287151153564316824E-15, 8.022246340594178726E-16, 0.6550661256926955112 ) ) ;
#29 = CARTESIAN_POINT ( 'NONE',  ( 2.286920276942252663E-13, 1.999999999999992228, 65.50000000000000000 ) ) ;
#30 = PLANE ( 'NONE',  #47 ) ;
#31 = VERTEX_POINT ( 'NONE', #109 ) ;
#32 = VERTEX_POINT ( 'NONE', #112 ) ;
#33 =( NAMED_UNIT ( * ) SI_UNIT ( $, .STERADIAN. ) SOLID_ANGLE_UNIT ( ) );
#34 = PERSON_AND_ORGANIZATION ( #234, #239 ) ;
#35 = MANIFOLD_SOLID_BREP ( 'Corps-Déplacer/Copier1[1]', #102 ) ;
#36 = SECURITY_CLASSIFICATION_LEVEL ( 'unclassified' ) ;
#37 = AXIS2_PLACEMENT_3D ( 'NONE', #107, #40, #121 ) ;
#38 = APPLICATION_CONTEXT ( 'configuration controlled 3d designs of mechanical parts and assemblies' ) ;
#39 = EDGE_CURVE ( 'NONE', #146, #146, #78, .T. ) ;
#40 = DIRECTION ( 'NONE',  ( -3.491481338843133355E-15, -1.224646799147354045E-15, -1.000000000000000000 ) ) ;
#41 = LOCAL_TIME ( 11, 34, 2.000000000000000000, #151 ) ;
#42 = CARTESIAN_POINT ( 'NONE',  ( 2.304377683636468267E-13, -8.082668874372532400E-15, 66.00000000000000000 ) ) ;
#43 = CARTESIAN_POINT ( 'NONE',  ( 9.591882442159316148E-14, 3.364379468366355278E-14, 27.47224318643354835 ) ) ;
#44 = CARTESIAN_POINT ( 'NONE',  ( 6.982962677686265448E-14, 2.449293598294707696E-14, 19.99999999999999645 ) ) ;
#45 = CARTESIAN_POINT ( 'NONE',  ( 2.304377683636468267E-13, 1.124819836996381437E-32, 66.00000000000000000 ) ) ;
#46 = CARTESIAN_POINT ( 'NONE',  ( 9.077851480992146724E-14, 1.649999999999997025, 26.00000000000000000 ) ) ;
#47 = AXIS2_PLACEMENT_3D ( 'NONE', #211, #258, #212 ) ;
#48 = AXIS2_PLACEMENT_3D ( 'NONE', #101, #79, #20 ) ;
#49 = CARTESIAN_POINT ( 'NONE',  ( 0.0000000000000000000, 0.0000000000000000000, 0.0000000000000000000 ) ) ;
#50 = AXIS2_PLACEMENT_3D ( 'NONE', #162, #164, #145 ) ;
#51 = APPROVAL_DATE_TIME ( #89, #69 ) ;
#52 = EDGE_CURVE ( 'NONE', #32, #32, #68, .T. ) ;
#53 = DATE_TIME_ROLE ( 'creation_date' ) ;
#54 = CC_DESIGN_APPROVAL ( #69, ( #218 ) ) ;
#55 = CC_DESIGN_PERSON_AND_ORGANIZATION_ASSIGNMENT ( #34, #96, ( #197 ) ) ;
#56 = ORIENTED_EDGE ( 'NONE', *, *, #181, .F. ) ;
#57 = COORDINATED_UNIVERSAL_TIME_OFFSET ( 1, 0, .AHEAD. ) ;
#58 = ADVANCED_FACE ( 'NONE', ( #60 ), #249, .F. ) ;
#59 = EDGE_LOOP ( 'NONE', ( #154 ) ) ;
#60 = FACE_OUTER_BOUND ( 'NONE', #195, .T. ) ;
#61 = DIRECTION ( 'NONE',  ( 0.0000000000000000000, -1.000000000000000000, 0.0000000000000000000 ) ) ;
#62 = LOCAL_TIME ( 11, 34, 2.000000000000000000, #57 ) ;
#63 = DIRECTION ( 'NONE',  ( 3.491481338843133355E-15, 1.224646799147354045E-15, 1.000000000000000000 ) ) ;
#64 = FACE_BOUND ( 'NONE', #100, .T. ) ;
#65 = CARTESIAN_POINT ( 'NONE',  ( 9.289511288531589697E-14, 3.258321944493871681E-14, 26.60621778264916770 ) ) ;
#66 = VERTEX_POINT ( 'NONE', #72 ) ;
#67 = APPROVAL_ROLE ( '' ) ;
#68 = CIRCLE ( 'NONE', #216, 1.649999999999981704 ) ;
#69 = APPROVAL ( #253, 'UNSPECIFIED' ) ;
#70 = CONICAL_SURFACE ( 'NONE', #110, 1.500000000000000222, 0.7853981633974476129 ) ;
#71 = PERSON_AND_ORGANIZATION ( #234, #239 ) ;
#72 = CARTESIAN_POINT ( 'NONE',  ( 2.304377683636468267E-13, 1.499999999999992228, 66.00000000000000000 ) ) ;
#73 = APPROVAL_STATUS ( 'not_yet_approved' ) ;
#74 = APPROVAL_PERSON_ORGANIZATION ( #134, #226, #171 ) ;
#75 = ORIENTED_EDGE ( 'NONE', *, *, #21, .T. ) ;
#76 = EDGE_LOOP ( 'NONE', ( #137 ) ) ;
#77 = FACE_OUTER_BOUND ( 'NONE', #135, .T. ) ;
#78 = CIRCLE ( 'NONE', #149, 1.999999999999997335 ) ;
#79 = DIRECTION ( 'NONE',  ( -3.491481338843133355E-15, 1.224646799147353207E-16, -1.000000000000000000 ) ) ;
#80 = CIRCLE ( 'NONE', #48, 2.000000000000000000 ) ;
#81 = EDGE_CURVE ( 'NONE', #129, #129, #80, .T. ) ;
#82 = DIRECTION ( 'NONE',  ( 3.491481338843133355E-15, 1.224646799147354045E-15, 1.000000000000000000 ) ) ;
#83 = CONICAL_SURFACE ( 'NONE', #174, 2.499999999999960920, 0.5235987755982964842 ) ;
#84 = DIRECTION ( 'NONE',  ( -4.202028969572153373E-30, 1.000000000000000000, -1.248475228922702751E-15 ) ) ;
#85 = DIRECTION ( 'NONE',  ( 0.0000000000000000000, 1.000000000000000000, 0.0000000000000000000 ) ) ;
#86 = CIRCLE ( 'NONE', #99, 1.649999999999965050 ) ;
#87 = MECHANICAL_CONTEXT ( 'NONE', #220, 'mechanical' ) ;
#88 = EDGE_LOOP ( 'NONE', ( #155 ) ) ;
#89 = DATE_AND_TIME ( #232, #41 ) ;
#90 = UNCERTAINTY_MEASURE_WITH_UNIT (LENGTH_MEASURE( 1.000000000000000082E-05 ), #183, 'distance_accuracy_value', 'NONE');
#91 = DATE_AND_TIME ( #15, #208 ) ;
#92 = CC_DESIGN_PERSON_AND_ORGANIZATION_ASSIGNMENT ( #191, #136, ( #194 ) ) ;
#93 = ORIENTED_EDGE ( 'NONE', *, *, #52, .T. ) ;
#94 = AXIS2_PLACEMENT_3D ( 'NONE', #6, #225, #227 ) ;
#95 = CALENDAR_DATE ( 2021, 15, 10 ) ;
#96 = PERSON_AND_ORGANIZATION_ROLE ( 'design_supplier' ) ;
#97 = EDGE_LOOP ( 'NONE', ( #75 ) ) ;
#98 = FACE_OUTER_BOUND ( 'NONE', #16, .T. ) ;
#99 = AXIS2_PLACEMENT_3D ( 'NONE', #251, #24, #250 ) ;
#100 = EDGE_LOOP ( 'NONE', ( #56 ) ) ;
#101 = CARTESIAN_POINT ( 'NONE',  ( 2.286920276942252663E-13, -8.021436534415164826E-15, 65.50000000000000000 ) ) ;
#102 = CLOSED_SHELL ( 'NONE', ( #236, #143, #116, #237, #186, #58 ) ) ;
#103 = DIRECTION ( 'NONE',  ( 3.491481338843133355E-15, 1.224646799147354045E-15, 1.000000000000000000 ) ) ;
#104 = AXIS2_PLACEMENT_3D ( 'NONE', #179, #159, #124 ) ;
#105 = DIRECTION ( 'NONE',  ( -3.491481338843133355E-15, 1.224646799147353207E-16, -1.000000000000000000 ) ) ;
#106 = EDGE_CURVE ( 'NONE', #231, #231, #5, .T. ) ;
#107 = CARTESIAN_POINT ( 'NONE',  ( 1.683803747106113056E-15, 5.905988516521946998E-16, 0.4822605604027155324 ) ) ;
#108 = VERTEX_POINT ( 'NONE', #46 ) ;
#109 = CARTESIAN_POINT ( 'NONE',  ( 6.982962677686265448E-14, -1.649999999999957279, 19.99999999999999645 ) ) ;
#110 = AXIS2_PLACEMENT_3D ( 'NONE', #42, #142, #85 ) ;
#111 = LOCAL_TIME ( 11, 34, 2.000000000000000000, #152 ) ;
#112 = CARTESIAN_POINT ( 'NONE',  ( 6.982962677686265448E-14, -1.649999999999957279, 19.99999999999999645 ) ) ;
#113 = ADVANCED_BREP_SHAPE_REPRESENTATION ( '62849', ( #35, #125, #165 ), #22 ) ;
#114 = CARTESIAN_POINT ( 'NONE',  ( 9.289511288531590959E-14, -1.999999999999964917, 26.60621778264917126 ) ) ;
#115 = CIRCLE ( 'NONE', #37, 1.324999999999999289 ) ;
#116 = ADVANCED_FACE ( 'NONE', ( #178 ), #224, .F. ) ;
#117 = SHAPE_DEFINITION_REPRESENTATION ( #201, #113 ) ;
#118 = AXIS2_PLACEMENT_3D ( 'NONE', #144, #248, #257 ) ;
#119 = ORIENTED_EDGE ( 'NONE', *, *, #181, .T. ) ;
#120 = ORIENTED_EDGE ( 'NONE', *, *, #106, .T. ) ;
#121 = DIRECTION ( 'NONE',  ( -4.215242897149423890E-30, 1.000000000000000000, -1.227398685832647247E-15 ) ) ;
#122 = LOCAL_TIME ( 11, 34, 2.000000000000000000, #209 ) ;
#123 = DIRECTION ( 'NONE',  ( 6.162975822039163138E-30, -1.000000000000000000, 1.734723475976809461E-15 ) ) ;
#124 = DIRECTION ( 'NONE',  ( -4.275831445896958607E-31, -1.000000000000000000, -1.224646799147353207E-16 ) ) ;
#125 = MANIFOLD_SOLID_BREP ( 'Corps-Déplacer/Copier1[2]', #160 ) ;
#126 = CC_DESIGN_DATE_AND_TIME_ASSIGNMENT ( #91, #196, ( #194 ) ) ;
#127 = DIRECTION ( 'NONE',  ( 0.0000000000000000000, -1.000000000000000000, 0.0000000000000000000 ) ) ;
#128 = FACE_OUTER_BOUND ( 'NONE', #241, .T. ) ;
#129 = VERTEX_POINT ( 'NONE', #29 ) ;
#130 = EDGE_CURVE ( 'NONE', #168, #168, #115, .T. ) ;
#131 = AXIS2_PLACEMENT_3D ( 'NONE', #199, #82, #202 ) ;
#132 = APPROVAL_PERSON_ORGANIZATION ( #71, #69, #67 ) ;
#133 = PERSON_AND_ORGANIZATION_ROLE ( 'creator' ) ;
#134 = PERSON_AND_ORGANIZATION ( #234, #239 ) ;
#135 = EDGE_LOOP ( 'NONE', ( #243 ) ) ;
#136 = PERSON_AND_ORGANIZATION_ROLE ( 'classification_officer' ) ;
#137 = ORIENTED_EDGE ( 'NONE', *, *, #130, .F. ) ;
#138 = ORIENTED_EDGE ( 'NONE', *, *, #81, .T. ) ;
#139 = DIRECTION ( 'NONE',  ( -3.491481338843133355E-15, 1.224646799147353207E-16, -1.000000000000000000 ) ) ;
#140 = FACE_OUTER_BOUND ( 'NONE', #170, .T. ) ;
#141 = AXIS2_PLACEMENT_3D ( 'NONE', #44, #139, #127 ) ;
#142 = DIRECTION ( 'NONE',  ( -3.491481338843133355E-15, 1.224646799147353207E-16, -1.000000000000000000 ) ) ;
#143 = ADVANCED_FACE ( 'NONE', ( #140, #223 ), #70, .T. ) ;
#144 = CARTESIAN_POINT ( 'NONE',  ( -3.491481338843130200E-15, -1.224646799147353059E-15, -0.9999999999999991118 ) ) ;
#145 = DIRECTION ( 'NONE',  ( -4.202028969572197513E-30, 1.000000000000000000, -1.182766006347836125E-15 ) ) ;
#146 = VERTEX_POINT ( 'NONE', #114 ) ;
#147 = FACE_OUTER_BOUND ( 'NONE', #88, .T. ) ;
#148 = ADVANCED_FACE ( 'NONE', ( #77 ), #206, .T. ) ;
#149 = AXIS2_PLACEMENT_3D ( 'NONE', #65, #63, #123 ) ;
#150 = DIRECTION ( 'NONE',  ( 1.000000000000000000, 0.0000000000000000000, 0.0000000000000000000 ) ) ;
#151 = COORDINATED_UNIVERSAL_TIME_OFFSET ( 1, 0, .AHEAD. ) ;
#152 = COORDINATED_UNIVERSAL_TIME_OFFSET ( 1, 0, .AHEAD. ) ;
#153 = AXIS2_PLACEMENT_3D ( 'NONE', #28, #205, #11 ) ;
#154 = ORIENTED_EDGE ( 'NONE', *, *, #21, .F. ) ;
#155 = ORIENTED_EDGE ( 'NONE', *, *, #166, .F. ) ;
#156 = ORIENTED_EDGE ( 'NONE', *, *, #166, .T. ) ;
#157 = ADVANCED_FACE ( 'NONE', ( #8, #177 ), #175, .T. ) ;
#158 = PRODUCT_RELATED_PRODUCT_CATEGORY ( 'detail', '', ( #180 ) ) ;
#159 = DIRECTION ( 'NONE',  ( 3.491481338843133355E-15, -1.224646799147353207E-16, 1.000000000000000000 ) ) ;
#160 = CLOSED_SHELL ( 'NONE', ( #7, #148, #259, #157 ) ) ;
#161 = DIRECTION ( 'NONE',  ( -3.491481338843133355E-15, -1.224646799147354045E-15, -1.000000000000000000 ) ) ;
#162 = CARTESIAN_POINT ( 'NONE',  ( -3.491481338843130200E-15, -1.224646799147353059E-15, -0.9999999999999991118 ) ) ;
#163 = CC_DESIGN_APPROVAL ( #204, ( #194 ) ) ;
#164 = DIRECTION ( 'NONE',  ( -3.491481338843133355E-15, -1.224646799147354045E-15, -1.000000000000000000 ) ) ;
#165 = AXIS2_PLACEMENT_3D ( 'NONE', #49, #10, #150 ) ;
#166 = EDGE_CURVE ( 'NONE', #31, #31, #213, .T. ) ;
#167 = PERSON_AND_ORGANIZATION ( #234, #239 ) ;
#168 = VERTEX_POINT ( 'NONE', #185 ) ;
#169 = CC_DESIGN_DATE_AND_TIME_ASSIGNMENT ( #233, #53, ( #218 ) ) ;
#170 = EDGE_LOOP ( 'NONE', ( #17 ) ) ;
#171 = APPROVAL_ROLE ( '' ) ;
#172 = EDGE_LOOP ( 'NONE', ( #120 ) ) ;
#173 = APPROVAL_DATE_TIME ( #238, #204 ) ;
#174 = AXIS2_PLACEMENT_3D ( 'NONE', #43, #103, #200 ) ;
#175 = CYLINDRICAL_SURFACE ( 'NONE', #50, 1.649999999999981704 ) ;
#176 = DIRECTION ( 'NONE',  ( -3.491481338843133355E-15, 1.224646799147353207E-16, -1.000000000000000000 ) ) ;
#177 = FACE_OUTER_BOUND ( 'NONE', #262, .T. ) ;
#178 = FACE_OUTER_BOUND ( 'NONE', #59, .T. ) ;
#179 = CARTESIAN_POINT ( 'NONE',  ( 6.982962677686266711E-14, 1.499759782661850218E-32, 20.00000000000000000 ) ) ;
#180 = PRODUCT ( '62849', '62849', '', ( #87 ) ) ;
#181 = EDGE_CURVE ( 'NONE', #108, #108, #86, .T. ) ;
#182 = CC_DESIGN_PERSON_AND_ORGANIZATION_ASSIGNMENT ( #167, #188, ( #180 ) ) ;
#183 =( LENGTH_UNIT ( ) NAMED_UNIT ( * ) SI_UNIT ( .MILLI., .METRE. ) );
#184 = CONICAL_SURFACE ( 'NONE', #153, 1.649999999999998801, 1.082104136236485381 ) ;
#185 = CARTESIAN_POINT ( 'NONE',  ( 1.683803747106107534E-15, 1.324999999999999956, 0.4822605604027139226 ) ) ;
#186 = ADVANCED_FACE ( 'NONE', ( #64, #198 ), #83, .T. ) ;
#187 = CALENDAR_DATE ( 2021, 15, 10 ) ;
#188 = PERSON_AND_ORGANIZATION_ROLE ( 'design_owner' ) ;
#189 = DESIGN_CONTEXT ( 'detailed design', #38, 'design' ) ;
#190 = CARTESIAN_POINT ( 'NONE',  ( 2.304377683636468267E-13, -8.082668874372532400E-15, 66.00000000000000000 ) ) ;
#191 = PERSON_AND_ORGANIZATION ( #234, #239 ) ;
#192 = AXIS2_PLACEMENT_3D ( 'NONE', #190, #229, #27 ) ;
#193 = AXIS2_PLACEMENT_3D ( 'NONE', #45, #176, #247 ) ;
#194 = SECURITY_CLASSIFICATION ( '', '', #36 ) ;
#195 = EDGE_LOOP ( 'NONE', ( #93 ) ) ;
#196 = DATE_TIME_ROLE ( 'classification_date' ) ;
#197 = PRODUCT_DEFINITION_FORMATION_WITH_SPECIFIED_SOURCE ( 'ANY', '', #180, .NOT_KNOWN. ) ;
#198 = FACE_OUTER_BOUND ( 'NONE', #246, .T. ) ;
#199 = CARTESIAN_POINT ( 'NONE',  ( 1.683803747106113056E-15, 5.905988516521946998E-16, 0.4822605604027155324 ) ) ;
#200 = DIRECTION ( 'NONE',  ( 4.930380657631400855E-30, -1.000000000000000000, 1.387778780781467369E-15 ) ) ;
#201 = PRODUCT_DEFINITION_SHAPE ( 'NONE', 'NONE',  #218 ) ;
#202 = DIRECTION ( 'NONE',  ( 4.215242897149424590E-30, -1.000000000000000000, 1.227398685832647444E-15 ) ) ;
#203 = FACE_BOUND ( 'NONE', #76, .T. ) ;
#204 = APPROVAL ( #73, 'UNSPECIFIED' ) ;
#205 = DIRECTION ( 'NONE',  ( 3.491481338843133355E-15, 1.224646799147354045E-15, 1.000000000000000000 ) ) ;
#206 = CONICAL_SURFACE ( 'NONE', #131, 1.324999999999999067, 1.221730476396032161 ) ;
#207 = EDGE_LOOP ( 'NONE', ( #12 ) ) ;
#208 = LOCAL_TIME ( 11, 34, 2.000000000000000000, #260 ) ;
#209 = COORDINATED_UNIVERSAL_TIME_OFFSET ( 1, 0, .AHEAD. ) ;
#210 = APPROVAL_STATUS ( 'not_yet_approved' ) ;
#211 = CARTESIAN_POINT ( 'NONE',  ( 6.982962677686266711E-14, 1.499759782661850218E-32, 20.00000000000000000 ) ) ;
#212 = DIRECTION ( 'NONE',  ( -4.275831445896958607E-31, -1.000000000000000000, -1.224646799147353207E-16 ) ) ;
#213 = CIRCLE ( 'NONE', #141, 1.649999999999981704 ) ;
#214 = PERSON_AND_ORGANIZATION_ROLE ( 'creator' ) ;
#215 = EDGE_LOOP ( 'NONE', ( #156 ) ) ;
#216 = AXIS2_PLACEMENT_3D ( 'NONE', #221, #105, #61 ) ;
#217 = ORIENTED_EDGE ( 'NONE', *, *, #52, .F. ) ;
#218 = PRODUCT_DEFINITION ( 'UNKNOWN', '', #197, #189 ) ;
#219 = ORIENTED_EDGE ( 'NONE', *, *, #39, .F. ) ;
#220 = APPLICATION_CONTEXT ( 'configuration controlled 3d designs of mechanical parts and assemblies' ) ;
#221 = CARTESIAN_POINT ( 'NONE',  ( 6.982962677686265448E-14, 2.449293598294707696E-14, 19.99999999999999645 ) ) ;
#222 = CC_DESIGN_APPROVAL ( #226, ( #197 ) ) ;
#223 = FACE_BOUND ( 'NONE', #97, .T. ) ;
#224 = PLANE ( 'NONE',  #193 ) ;
#225 = DIRECTION ( 'NONE',  ( -3.491481338843133355E-15, 1.224646799147353207E-16, -1.000000000000000000 ) ) ;
#226 = APPROVAL ( #210, 'UNSPECIFIED' ) ;
#227 = DIRECTION ( 'NONE',  ( 4.275831445896959482E-31, 1.000000000000000000, 1.224646799147353454E-16 ) ) ;
#228 = CARTESIAN_POINT ( 'NONE',  ( 2.287151153564310119E-15, 1.649999999999999911, 0.6550661256926935128 ) ) ;
#229 = DIRECTION ( 'NONE',  ( -3.491481338843133355E-15, 1.224646799147353207E-16, -1.000000000000000000 ) ) ;
#230 = AXIS2_PLACEMENT_3D ( 'NONE', #9, #161, #84 ) ;
#231 = VERTEX_POINT ( 'NONE', #228 ) ;
#232 = CALENDAR_DATE ( 2021, 15, 10 ) ;
#233 = DATE_AND_TIME ( #187, #122 ) ;
#234 = PERSON ( 'UNSPECIFIED', 'UNSPECIFIED', 'UNSPECIFIED', ('UNSPECIFIED'), ('UNSPECIFIED'), ('UNSPECIFIED') ) ;
#235 = PERSON_AND_ORGANIZATION ( #234, #239 ) ;
#236 = ADVANCED_FACE ( 'NONE', ( #4, #26 ), #3, .T. ) ;
#237 = ADVANCED_FACE ( 'NONE', ( #128, #98 ), #23, .T. ) ;
#238 = DATE_AND_TIME ( #95, #111 ) ;
#239 = ORGANIZATION ( 'UNSPECIFIED', 'UNSPECIFIED', '' ) ;
#240 = APPROVAL_DATE_TIME ( #14, #226 ) ;
#241 = EDGE_LOOP ( 'NONE', ( #119 ) ) ;
#242 = PERSON_AND_ORGANIZATION ( #234, #239 ) ;
#243 = ORIENTED_EDGE ( 'NONE', *, *, #130, .T. ) ;
#244 = EDGE_LOOP ( 'NONE', ( #138 ) ) ;
#245 = APPROVAL_ROLE ( '' ) ;
#246 = EDGE_LOOP ( 'NONE', ( #219 ) ) ;
#247 = DIRECTION ( 'NONE',  ( 4.275831445896958607E-31, 1.000000000000000000, 1.224646799147353207E-16 ) ) ;
#248 = DIRECTION ( 'NONE',  ( -3.491481338843133355E-15, -1.224646799147354045E-15, -1.000000000000000000 ) ) ;
#249 = PLANE ( 'NONE',  #104 ) ;
#250 = DIRECTION ( 'NONE',  ( -7.470273723683981582E-30, 1.000000000000000000, -2.102695122396174191E-15 ) ) ;
#251 = CARTESIAN_POINT ( 'NONE',  ( 9.077851480992147986E-14, 3.184081677783120794E-14, 26.00000000000000355 ) ) ;
#252 = APPLICATION_PROTOCOL_DEFINITION ( 'international standard', 'config_control_design', 1994, #220 ) ;
#253 = APPROVAL_STATUS ( 'not_yet_approved' ) ;
#254 = CIRCLE ( 'NONE', #192, 1.500000000000000222 ) ;
#255 =( NAMED_UNIT ( * ) PLANE_ANGLE_UNIT ( ) SI_UNIT ( $, .RADIAN. ) );
#256 = FACE_OUTER_BOUND ( 'NONE', #172, .T. ) ;
#257 = DIRECTION ( 'NONE',  ( -4.202028969572197513E-30, 1.000000000000000000, -1.182766006347836125E-15 ) ) ;
#258 = DIRECTION ( 'NONE',  ( 3.491481338843133355E-15, -1.224646799147353207E-16, 1.000000000000000000 ) ) ;
#259 = ADVANCED_FACE ( 'NONE', ( #203, #256 ), #184, .T. ) ;
#260 = COORDINATED_UNIVERSAL_TIME_OFFSET ( 1, 0, .AHEAD. ) ;
#261 = PERSON_AND_ORGANIZATION ( #234, #239 ) ;
#262 = EDGE_LOOP ( 'NONE', ( #19 ) ) ;
#263 = CC_DESIGN_SECURITY_CLASSIFICATION ( #194, ( #197 ) ) ;
ENDSEC;
END-ISO-10303-21;
