ISO-10303-21;
HEADER;
FILE_DESCRIPTION (( 'STEP AP203' ),
    '1' );
FILE_NAME ('62848.step',
    '2021-10-15T09:34:01',
    ( '' ),
    ( '' ),
    'SwSTEP 2.0',
    'SolidWorks 2019',
    '' );
FILE_SCHEMA (( 'CONFIG_CONTROL_DESIGN' ));
ENDSEC;

DATA;
#1 = EDGE_CURVE ( 'NONE', #206, #206, #28, .T. ) ;
#2 = VERTEX_POINT ( 'NONE', #20 ) ;
#3 = CIRCLE ( 'NONE', #254, 1.999999999999997335 ) ;
#4 = PERSON_AND_ORGANIZATION ( #114, #187 ) ;
#5 = AXIS2_PLACEMENT_3D ( 'NONE', #255, #15, #184 ) ;
#6 = COORDINATED_UNIVERSAL_TIME_OFFSET ( 1, 0, .AHEAD. ) ;
#7 = ORIENTED_EDGE ( 'NONE', *, *, #21, .F. ) ;
#8 = AXIS2_PLACEMENT_3D ( 'NONE', #154, #204, #229 ) ;
#9 = PERSON_AND_ORGANIZATION_ROLE ( 'creator' ) ;
#10 = CARTESIAN_POINT ( 'NONE',  ( 2.304377683636468267E-13, -8.082668874372532400E-15, 66.00000000000000000 ) ) ;
#11 = PERSON_AND_ORGANIZATION ( #114, #187 ) ;
#12 = EDGE_LOOP ( 'NONE', ( #232 ) ) ;
#13 = ADVANCED_BREP_SHAPE_REPRESENTATION ( '62848', ( #55, #243, #135 ), #140 ) ;
#14 = EDGE_CURVE ( 'NONE', #23, #23, #196, .T. ) ;
#15 = DIRECTION ( 'NONE',  ( 3.491481338843133355E-15, 1.224646799147354045E-15, 1.000000000000000000 ) ) ;
#16 = DIRECTION ( 'NONE',  ( 0.0000000000000000000, -1.000000000000000000, 0.0000000000000000000 ) ) ;
#17 = CARTESIAN_POINT ( 'NONE',  ( 6.982962677686266711E-14, 1.499759782661850218E-32, 20.00000000000000000 ) ) ;
#18 = AXIS2_PLACEMENT_3D ( 'NONE', #17, #181, #75 ) ;
#19 = CIRCLE ( 'NONE', #230, 2.000000000000000000 ) ;
#20 = CARTESIAN_POINT ( 'NONE',  ( 6.982962677686265448E-14, -1.587499999999957279, 19.99999999999999645 ) ) ;
#21 = EDGE_CURVE ( 'NONE', #173, #173, #63, .T. ) ;
#22 = CARTESIAN_POINT ( 'NONE',  ( 0.0000000000000000000, 0.0000000000000000000, 0.0000000000000000000 ) ) ;
#23 = VERTEX_POINT ( 'NONE', #186 ) ;
#24 = PERSON_AND_ORGANIZATION ( #114, #187 ) ;
#25 = EDGE_LOOP ( 'NONE', ( #45 ) ) ;
#26 = APPROVAL ( #146, 'UNSPECIFIED' ) ;
#27 = CALENDAR_DATE ( 2021, 15, 10 ) ;
#28 = CIRCLE ( 'NONE', #179, 1.587499999999998801 ) ;
#29 = EDGE_LOOP ( 'NONE', ( #105 ) ) ;
#30 = FACE_OUTER_BOUND ( 'NONE', #212, .T. ) ;
#31 = CALENDAR_DATE ( 2021, 15, 10 ) ;
#32 = FACE_BOUND ( 'NONE', #72, .T. ) ;
#33 = DIRECTION ( 'NONE',  ( -3.491481338843133355E-15, 1.224646799147353207E-16, -1.000000000000000000 ) ) ;
#34 = DIRECTION ( 'NONE',  ( 3.491481338843133355E-15, -1.224646799147353207E-16, 1.000000000000000000 ) ) ;
#35 = CARTESIAN_POINT ( 'NONE',  ( 9.327307682735058186E-14, 3.271579134977932762E-14, 26.71447095812222017 ) ) ;
#36 = CARTESIAN_POINT ( 'NONE',  ( 6.982962677686265448E-14, -1.587499999999957279, 19.99999999999999645 ) ) ;
#37 = PRODUCT_DEFINITION_FORMATION_WITH_SPECIFIED_SOURCE ( 'ANY', '', #97, .NOT_KNOWN. ) ;
#38 = CC_DESIGN_SECURITY_CLASSIFICATION ( #150, ( #37 ) ) ;
#39 = CARTESIAN_POINT ( 'NONE',  ( 1.620263983064368148E-15, 1.274999999999999911, 0.4640620486894041496 ) ) ;
#40 = APPROVAL ( #233, 'UNSPECIFIED' ) ;
#41 = CARTESIAN_POINT ( 'NONE',  ( 9.327307682735059448E-14, -1.999999999999964917, 26.71447095812222372 ) ) ;
#42 = DATE_TIME_ROLE ( 'classification_date' ) ;
#43 = PERSON_AND_ORGANIZATION ( #114, #187 ) ;
#44 = DATE_AND_TIME ( #102, #205 ) ;
#45 = ORIENTED_EDGE ( 'NONE', *, *, #1, .F. ) ;
#46 = COORDINATED_UNIVERSAL_TIME_OFFSET ( 1, 0, .AHEAD. ) ;
#47 = APPROVAL_STATUS ( 'not_yet_approved' ) ;
#48 = EDGE_LOOP ( 'NONE', ( #139 ) ) ;
#49 = ADVANCED_FACE ( 'NONE', ( #108, #260 ), #159, .T. ) ;
#50 = CYLINDRICAL_SURFACE ( 'NONE', #58, 1.587499999999981704 ) ;
#51 = COORDINATED_UNIVERSAL_TIME_OFFSET ( 1, 0, .AHEAD. ) ;
#52 = PRODUCT_DEFINITION_SHAPE ( 'NONE', 'NONE',  #241 ) ;
#53 = CC_DESIGN_PERSON_AND_ORGANIZATION_ASSIGNMENT ( #180, #9, ( #37 ) ) ;
#54 = FACE_BOUND ( 'NONE', #74, .T. ) ;
#55 = MANIFOLD_SOLID_BREP ( 'Corps-Déplacer/Copier1[1]', #83 ) ;
#56 = CARTESIAN_POINT ( 'NONE',  ( 9.629678836362782112E-14, 3.377636658850415727E-14, 27.58049636190659726 ) ) ;
#57 = CARTESIAN_POINT ( 'NONE',  ( 2.304377683636468267E-13, -8.082668874372532400E-15, 66.00000000000000000 ) ) ;
#58 = AXIS2_PLACEMENT_3D ( 'NONE', #103, #245, #247 ) ;
#59 = FACE_OUTER_BOUND ( 'NONE', #178, .T. ) ;
#60 = ADVANCED_FACE ( 'NONE', ( #124 ), #79, .F. ) ;
#61 = CARTESIAN_POINT ( 'NONE',  ( 1.620263983064373472E-15, 5.683121025332442504E-16, 0.4640620486894057040 ) ) ;
#62 =( NAMED_UNIT ( * ) SI_UNIT ( $, .STERADIAN. ) SOLID_ANGLE_UNIT ( ) );
#63 = CIRCLE ( 'NONE', #104, 1.500000000000000222 ) ;
#64 = CC_DESIGN_DATE_AND_TIME_ASSIGNMENT ( #157, #113, ( #241 ) ) ;
#65 = DIRECTION ( 'NONE',  ( -4.229493211203344146E-30, 1.000000000000000000, -1.233014235375672444E-15 ) ) ;
#66 = APPLICATION_PROTOCOL_DEFINITION ( 'international standard', 'config_control_design', 1994, #237 ) ;
#67 = CALENDAR_DATE ( 2021, 15, 10 ) ;
#68 = APPROVAL_PERSON_ORGANIZATION ( #43, #26, #252 ) ;
#69 = EDGE_LOOP ( 'NONE', ( #115 ) ) ;
#70 = ORIENTED_EDGE ( 'NONE', *, *, #156, .T. ) ;
#71 = PERSON_AND_ORGANIZATION_ROLE ( 'creator' ) ;
#72 = EDGE_LOOP ( 'NONE', ( #98 ) ) ;
#73 = AXIS2_PLACEMENT_3D ( 'NONE', #223, #34, #202 ) ;
#74 = EDGE_LOOP ( 'NONE', ( #155 ) ) ;
#75 = DIRECTION ( 'NONE',  ( -4.275831445896958607E-31, -1.000000000000000000, -1.224646799147353207E-16 ) ) ;
#76 = DIRECTION ( 'NONE',  ( 3.491481338843133355E-15, 1.224646799147354045E-15, 1.000000000000000000 ) ) ;
#77 = AXIS2_PLACEMENT_3D ( 'NONE', #86, #151, #84 ) ;
#78 = CC_DESIGN_APPROVAL ( #40, ( #150 ) ) ;
#79 = PLANE ( 'NONE',  #18 ) ;
#80 = DIRECTION ( 'NONE',  ( -3.491481338843133355E-15, 1.224646799147353207E-16, -1.000000000000000000 ) ) ;
#81 = CARTESIAN_POINT ( 'NONE',  ( 6.982962677686265448E-14, 2.449293598294707696E-14, 19.99999999999999645 ) ) ;
#82 = EDGE_CURVE ( 'NONE', #111, #111, #19, .T. ) ;
#83 = CLOSED_SHELL ( 'NONE', ( #170, #148, #256, #231, #118, #60 ) ) ;
#84 = DIRECTION ( 'NONE',  ( 4.275831445896958607E-31, 1.000000000000000000, 1.224646799147353207E-16 ) ) ;
#85 = DESIGN_CONTEXT ( 'detailed design', #237, 'design' ) ;
#86 = CARTESIAN_POINT ( 'NONE',  ( 2.304377683636468267E-13, 1.124819836996381437E-32, 66.00000000000000000 ) ) ;
#87 = CC_DESIGN_PERSON_AND_ORGANIZATION_ASSIGNMENT ( #24, #95, ( #150 ) ) ;
#88 = APPLICATION_PROTOCOL_DEFINITION ( 'international standard', 'config_control_design', 1994, #92 ) ;
#89 = APPROVAL_PERSON_ORGANIZATION ( #210, #249, #119 ) ;
#90 = CYLINDRICAL_SURFACE ( 'NONE', #8, 1.587499999999981704 ) ;
#91 = VERTEX_POINT ( 'NONE', #39 ) ;
#92 = APPLICATION_CONTEXT ( 'configuration controlled 3d designs of mechanical parts and assemblies' ) ;
#93 = AXIS2_PLACEMENT_3D ( 'NONE', #106, #33, #143 ) ;
#94 = LOCAL_TIME ( 11, 34, 1.000000000000000000, #46 ) ;
#95 = PERSON_AND_ORGANIZATION_ROLE ( 'classification_officer' ) ;
#96 = EDGE_LOOP ( 'NONE', ( #253 ) ) ;
#97 = PRODUCT ( '62848', '62848', '', ( #172 ) ) ;
#98 = ORIENTED_EDGE ( 'NONE', *, *, #21, .T. ) ;
#99 = CIRCLE ( 'NONE', #194, 1.587499999999981704 ) ;
#100 = SECURITY_CLASSIFICATION_LEVEL ( 'unclassified' ) ;
#101 = EDGE_LOOP ( 'NONE', ( #7 ) ) ;
#102 = CALENDAR_DATE ( 2021, 15, 10 ) ;
#103 = CARTESIAN_POINT ( 'NONE',  ( -3.491481338843130200E-15, -1.224646799147353059E-15, -0.9999999999999991118 ) ) ;
#104 = AXIS2_PLACEMENT_3D ( 'NONE', #10, #201, #217 ) ;
#105 = ORIENTED_EDGE ( 'NONE', *, *, #128, .T. ) ;
#106 = CARTESIAN_POINT ( 'NONE',  ( 0.0000000000000000000, 0.0000000000000000000, 0.0000000000000000000 ) ) ;
#107 = UNCERTAINTY_MEASURE_WITH_UNIT (LENGTH_MEASURE( 1.000000000000000082E-05 ), #171, 'distance_accuracy_value', 'NONE');
#108 = FACE_BOUND ( 'NONE', #160, .T. ) ;
#109 = CARTESIAN_POINT ( 'NONE',  ( 2.200405720043408822E-15, 1.587499999999999689, 0.6302212460836152941 ) ) ;
#110 = DIRECTION ( 'NONE',  ( 3.491481338843133355E-15, 1.224646799147354045E-15, 1.000000000000000000 ) ) ;
#111 = VERTEX_POINT ( 'NONE', #147 ) ;
#112 = EDGE_LOOP ( 'NONE', ( #142 ) ) ;
#113 = DATE_TIME_ROLE ( 'creation_date' ) ;
#114 = PERSON ( 'UNSPECIFIED', 'UNSPECIFIED', 'UNSPECIFIED', ('UNSPECIFIED'), ('UNSPECIFIED'), ('UNSPECIFIED') ) ;
#115 = ORIENTED_EDGE ( 'NONE', *, *, #161, .T. ) ;
#116 = EDGE_LOOP ( 'NONE', ( #214 ) ) ;
#117 = CARTESIAN_POINT ( 'NONE',  ( 2.200405720043415922E-15, 7.717984317709590331E-16, 0.6302212460836172925 ) ) ;
#118 = ADVANCED_FACE ( 'NONE', ( #54, #257 ), #175, .T. ) ;
#119 = APPROVAL_ROLE ( '' ) ;
#120 = DIRECTION ( 'NONE',  ( -7.764378988395958067E-30, 1.000000000000000000, -2.185478394931459090E-15 ) ) ;
#121 = DIRECTION ( 'NONE',  ( 4.930380657631401556E-30, -1.000000000000000000, 1.387778780781467566E-15 ) ) ;
#122 = AXIS2_PLACEMENT_3D ( 'NONE', #168, #203, #120 ) ;
#123 = CARTESIAN_POINT ( 'NONE',  ( 2.286920276942252663E-13, -8.021436534415164826E-15, 65.50000000000000000 ) ) ;
#124 = FACE_OUTER_BOUND ( 'NONE', #69, .T. ) ;
#125 = CARTESIAN_POINT ( 'NONE',  ( 1.620263983064373472E-15, 5.683121025332442504E-16, 0.4640620486894057040 ) ) ;
#126 = DIRECTION ( 'NONE',  ( 1.000000000000000000, 0.0000000000000000000, 0.0000000000000000000 ) ) ;
#127 = SHAPE_DEFINITION_REPRESENTATION ( #52, #13 ) ;
#128 = EDGE_CURVE ( 'NONE', #2, #2, #225, .T. ) ;
#129 = FACE_OUTER_BOUND ( 'NONE', #177, .T. ) ;
#130 = APPROVAL_DATE_TIME ( #44, #249 ) ;
#131 = ORIENTED_EDGE ( 'NONE', *, *, #14, .T. ) ;
#132 = DATE_AND_TIME ( #31, #94 ) ;
#133 = CC_DESIGN_PERSON_AND_ORGANIZATION_ASSIGNMENT ( #11, #71, ( #241 ) ) ;
#134 = APPROVAL_DATE_TIME ( #132, #40 ) ;
#135 = AXIS2_PLACEMENT_3D ( 'NONE', #22, #189, #126 ) ;
#136 = ORIENTED_EDGE ( 'NONE', *, *, #199, .F. ) ;
#137 = ORIENTED_EDGE ( 'NONE', *, *, #82, .F. ) ;
#138 = ADVANCED_FACE ( 'NONE', ( #261, #238 ), #50, .T. ) ;
#139 = ORIENTED_EDGE ( 'NONE', *, *, #82, .T. ) ;
#140 =( GEOMETRIC_REPRESENTATION_CONTEXT ( 3 ) GLOBAL_UNCERTAINTY_ASSIGNED_CONTEXT ( ( #107 ) ) GLOBAL_UNIT_ASSIGNED_CONTEXT ( ( #171, #149, #62 ) ) REPRESENTATION_CONTEXT ( 'NONE', 'WORKASPACE' ) );
#141 = DIRECTION ( 'NONE',  ( 6.162975822039163138E-30, -1.000000000000000000, 1.734723475976809461E-15 ) ) ;
#142 = ORIENTED_EDGE ( 'NONE', *, *, #1, .T. ) ;
#143 = DIRECTION ( 'NONE',  ( 4.275831445896959482E-31, 1.000000000000000000, 1.224646799147353454E-16 ) ) ;
#144 = AXIS2_PLACEMENT_3D ( 'NONE', #242, #162, #16 ) ;
#145 = DIRECTION ( 'NONE',  ( -3.491481338843133355E-15, -1.224646799147354045E-15, -1.000000000000000000 ) ) ;
#146 = APPROVAL_STATUS ( 'not_yet_approved' ) ;
#147 = CARTESIAN_POINT ( 'NONE',  ( 2.286920276942252663E-13, 1.999999999999992228, 65.50000000000000000 ) ) ;
#148 = ADVANCED_FACE ( 'NONE', ( #30, #32 ), #208, .T. ) ;
#149 =( NAMED_UNIT ( * ) PLANE_ANGLE_UNIT ( ) SI_UNIT ( $, .RADIAN. ) );
#150 = SECURITY_CLASSIFICATION ( '', '', #100 ) ;
#151 = DIRECTION ( 'NONE',  ( -3.491481338843133355E-15, 1.224646799147353207E-16, -1.000000000000000000 ) ) ;
#152 = FACE_OUTER_BOUND ( 'NONE', #101, .T. ) ;
#153 = PERSON_AND_ORGANIZATION ( #114, #187 ) ;
#154 = CARTESIAN_POINT ( 'NONE',  ( -3.491481338843130200E-15, -1.224646799147353059E-15, -0.9999999999999991118 ) ) ;
#155 = ORIENTED_EDGE ( 'NONE', *, *, #14, .F. ) ;
#156 = EDGE_CURVE ( 'NONE', #207, #207, #3, .T. ) ;
#157 = DATE_AND_TIME ( #198, #251 ) ;
#158 = ORIENTED_EDGE ( 'NONE', *, *, #199, .T. ) ;
#159 = CONICAL_SURFACE ( 'NONE', #5, 1.587499999999998579, 1.082104136236485159 ) ;
#160 = EDGE_LOOP ( 'NONE', ( #136 ) ) ;
#161 = EDGE_CURVE ( 'NONE', #224, #224, #99, .T. ) ;
#162 = DIRECTION ( 'NONE',  ( -3.491481338843133355E-15, 1.224646799147353207E-16, -1.000000000000000000 ) ) ;
#163 = AXIS2_PLACEMENT_3D ( 'NONE', #57, #80, #164 ) ;
#164 = DIRECTION ( 'NONE',  ( 0.0000000000000000000, 1.000000000000000000, 0.0000000000000000000 ) ) ;
#165 = LOCAL_TIME ( 11, 34, 1.000000000000000000, #51 ) ;
#166 = DIRECTION ( 'NONE',  ( 0.0000000000000000000, -1.000000000000000000, 0.0000000000000000000 ) ) ;
#167 = DIRECTION ( 'NONE',  ( 0.0000000000000000000, 1.000000000000000000, 0.0000000000000000000 ) ) ;
#168 = CARTESIAN_POINT ( 'NONE',  ( 9.077851480992147986E-14, 3.184081677783120794E-14, 26.00000000000000355 ) ) ;
#169 = AXIS2_PLACEMENT_3D ( 'NONE', #61, #192, #65 ) ;
#170 = ADVANCED_FACE ( 'NONE', ( #59, #244 ), #220, .T. ) ;
#171 =( LENGTH_UNIT ( ) NAMED_UNIT ( * ) SI_UNIT ( .MILLI., .METRE. ) );
#172 = MECHANICAL_CONTEXT ( 'NONE', #92, 'mechanical' ) ;
#173 = VERTEX_POINT ( 'NONE', #248 ) ;
#174 = COORDINATED_UNIVERSAL_TIME_OFFSET ( 1, 0, .AHEAD. ) ;
#175 = CONICAL_SURFACE ( 'NONE', #183, 2.499999999999960476, 0.5235987755982982605 ) ;
#176 = CONICAL_SURFACE ( 'NONE', #246, 1.274999999999999023, 1.221730476396032161 ) ;
#177 = EDGE_LOOP ( 'NONE', ( #131 ) ) ;
#178 = EDGE_LOOP ( 'NONE', ( #70 ) ) ;
#179 = AXIS2_PLACEMENT_3D ( 'NONE', #117, #145, #197 ) ;
#180 = PERSON_AND_ORGANIZATION ( #114, #187 ) ;
#181 = DIRECTION ( 'NONE',  ( 3.491481338843133355E-15, -1.224646799147353207E-16, 1.000000000000000000 ) ) ;
#182 = CC_DESIGN_PERSON_AND_ORGANIZATION_ASSIGNMENT ( #153, #228, ( #37 ) ) ;
#183 = AXIS2_PLACEMENT_3D ( 'NONE', #56, #76, #121 ) ;
#184 = DIRECTION ( 'NONE',  ( 4.367463180972633314E-30, -1.000000000000000000, 1.229331597148919533E-15 ) ) ;
#185 = PLANE ( 'NONE',  #73 ) ;
#186 = CARTESIAN_POINT ( 'NONE',  ( 9.077851480992146724E-14, 1.587499999999996581, 26.00000000000000000 ) ) ;
#187 = ORGANIZATION ( 'UNSPECIFIED', 'UNSPECIFIED', '' ) ;
#188 = ADVANCED_FACE ( 'NONE', ( #222 ), #185, .T. ) ;
#189 = DIRECTION ( 'NONE',  ( 0.0000000000000000000, 0.0000000000000000000, 1.000000000000000000 ) ) ;
#190 = PRODUCT_RELATED_PRODUCT_CATEGORY ( 'detail', '', ( #97 ) ) ;
#191 = FACE_OUTER_BOUND ( 'NONE', #215, .T. ) ;
#192 = DIRECTION ( 'NONE',  ( -3.491481338843133355E-15, -1.224646799147354045E-15, -1.000000000000000000 ) ) ;
#193 = DATE_AND_TIME ( #27, #240 ) ;
#194 = AXIS2_PLACEMENT_3D ( 'NONE', #81, #219, #166 ) ;
#195 = APPROVAL_PERSON_ORGANIZATION ( #234, #40, #218 ) ;
#196 = CIRCLE ( 'NONE', #122, 1.587499999999964828 ) ;
#197 = DIRECTION ( 'NONE',  ( -4.367463180972632613E-30, 1.000000000000000000, -1.229331597148919336E-15 ) ) ;
#198 = CALENDAR_DATE ( 2021, 15, 10 ) ;
#199 = EDGE_CURVE ( 'NONE', #91, #91, #221, .T. ) ;
#200 = DIRECTION ( 'NONE',  ( -3.491481338843133355E-15, 1.224646799147353207E-16, -1.000000000000000000 ) ) ;
#201 = DIRECTION ( 'NONE',  ( -3.491481338843133355E-15, 1.224646799147353207E-16, -1.000000000000000000 ) ) ;
#202 = DIRECTION ( 'NONE',  ( -4.275831445896958607E-31, -1.000000000000000000, -1.224646799147353207E-16 ) ) ;
#203 = DIRECTION ( 'NONE',  ( -3.491481338843133355E-15, -1.224646799147354045E-15, -1.000000000000000000 ) ) ;
#204 = DIRECTION ( 'NONE',  ( -3.491481338843133355E-15, -1.224646799147354045E-15, -1.000000000000000000 ) ) ;
#205 = LOCAL_TIME ( 11, 34, 1.000000000000000000, #174 ) ;
#206 = VERTEX_POINT ( 'NONE', #109 ) ;
#207 = VERTEX_POINT ( 'NONE', #41 ) ;
#208 = CONICAL_SURFACE ( 'NONE', #163, 1.500000000000000222, 0.7853981633974476129 ) ;
#209 = PLANE ( 'NONE',  #77 ) ;
#210 = PERSON_AND_ORGANIZATION ( #114, #187 ) ;
#211 = ADVANCED_FACE ( 'NONE', ( #191 ), #176, .T. ) ;
#212 = EDGE_LOOP ( 'NONE', ( #137 ) ) ;
#213 = DATE_AND_TIME ( #67, #165 ) ;
#214 = ORIENTED_EDGE ( 'NONE', *, *, #128, .F. ) ;
#215 = EDGE_LOOP ( 'NONE', ( #158 ) ) ;
#216 = CC_DESIGN_APPROVAL ( #26, ( #241 ) ) ;
#217 = DIRECTION ( 'NONE',  ( 0.0000000000000000000, 1.000000000000000000, 0.0000000000000000000 ) ) ;
#218 = APPROVAL_ROLE ( '' ) ;
#219 = DIRECTION ( 'NONE',  ( -3.491481338843133355E-15, 1.224646799147353207E-16, -1.000000000000000000 ) ) ;
#220 = CYLINDRICAL_SURFACE ( 'NONE', #93, 1.999999999999997335 ) ;
#221 = CIRCLE ( 'NONE', #169, 1.274999999999999245 ) ;
#222 = FACE_OUTER_BOUND ( 'NONE', #116, .T. ) ;
#223 = CARTESIAN_POINT ( 'NONE',  ( 6.982962677686266711E-14, 1.499759782661850218E-32, 20.00000000000000000 ) ) ;
#224 = VERTEX_POINT ( 'NONE', #36 ) ;
#225 = CIRCLE ( 'NONE', #144, 1.587499999999981704 ) ;
#226 = CC_DESIGN_PERSON_AND_ORGANIZATION_ASSIGNMENT ( #4, #227, ( #97 ) ) ;
#227 = PERSON_AND_ORGANIZATION_ROLE ( 'design_owner' ) ;
#228 = PERSON_AND_ORGANIZATION_ROLE ( 'design_supplier' ) ;
#229 = DIRECTION ( 'NONE',  ( -4.367463180972679557E-30, 1.000000000000000000, -1.229331597148932549E-15 ) ) ;
#230 = AXIS2_PLACEMENT_3D ( 'NONE', #123, #200, #167 ) ;
#231 = ADVANCED_FACE ( 'NONE', ( #129, #250 ), #90, .T. ) ;
#232 = ORIENTED_EDGE ( 'NONE', *, *, #156, .F. ) ;
#233 = APPROVAL_STATUS ( 'not_yet_approved' ) ;
#234 = PERSON_AND_ORGANIZATION ( #114, #187 ) ;
#235 = CC_DESIGN_DATE_AND_TIME_ASSIGNMENT ( #213, #42, ( #150 ) ) ;
#236 = CLOSED_SHELL ( 'NONE', ( #188, #211, #49, #138 ) ) ;
#237 = APPLICATION_CONTEXT ( 'configuration controlled 3d designs of mechanical parts and assemblies' ) ;
#238 = FACE_OUTER_BOUND ( 'NONE', #25, .T. ) ;
#239 = COORDINATED_UNIVERSAL_TIME_OFFSET ( 1, 0, .AHEAD. ) ;
#240 = LOCAL_TIME ( 11, 34, 1.000000000000000000, #239 ) ;
#241 = PRODUCT_DEFINITION ( 'UNKNOWN', '', #37, #85 ) ;
#242 = CARTESIAN_POINT ( 'NONE',  ( 6.982962677686265448E-14, 2.449293598294707696E-14, 19.99999999999999645 ) ) ;
#243 = MANIFOLD_SOLID_BREP ( 'Corps-Déplacer/Copier1[2]', #236 ) ;
#244 = FACE_OUTER_BOUND ( 'NONE', #48, .T. ) ;
#245 = DIRECTION ( 'NONE',  ( -3.491481338843133355E-15, -1.224646799147354045E-15, -1.000000000000000000 ) ) ;
#246 = AXIS2_PLACEMENT_3D ( 'NONE', #125, #110, #263 ) ;
#247 = DIRECTION ( 'NONE',  ( -4.367463180972679557E-30, 1.000000000000000000, -1.229331597148932549E-15 ) ) ;
#248 = CARTESIAN_POINT ( 'NONE',  ( 2.304377683636468267E-13, 1.499999999999992228, 66.00000000000000000 ) ) ;
#249 = APPROVAL ( #47, 'UNSPECIFIED' ) ;
#250 = FACE_OUTER_BOUND ( 'NONE', #96, .T. ) ;
#251 = LOCAL_TIME ( 11, 34, 1.000000000000000000, #6 ) ;
#252 = APPROVAL_ROLE ( '' ) ;
#253 = ORIENTED_EDGE ( 'NONE', *, *, #161, .F. ) ;
#254 = AXIS2_PLACEMENT_3D ( 'NONE', #35, #262, #141 ) ;
#255 = CARTESIAN_POINT ( 'NONE',  ( 2.200405720043415922E-15, 7.717984317709590331E-16, 0.6302212460836172925 ) ) ;
#256 = ADVANCED_FACE ( 'NONE', ( #152 ), #209, .F. ) ;
#257 = FACE_OUTER_BOUND ( 'NONE', #12, .T. ) ;
#258 = APPROVAL_DATE_TIME ( #193, #26 ) ;
#259 = CC_DESIGN_APPROVAL ( #249, ( #37 ) ) ;
#260 = FACE_OUTER_BOUND ( 'NONE', #112, .T. ) ;
#261 = FACE_OUTER_BOUND ( 'NONE', #29, .T. ) ;
#262 = DIRECTION ( 'NONE',  ( 3.491481338843133355E-15, 1.224646799147354045E-15, 1.000000000000000000 ) ) ;
#263 = DIRECTION ( 'NONE',  ( 4.229493211203344847E-30, -1.000000000000000000, 1.233014235375672641E-15 ) ) ;
ENDSEC;
END-ISO-10303-21;
