ISO-10303-21;
HEADER;
FILE_DESCRIPTION (( 'STEP AP203' ),
    '1' );
FILE_NAME ('62846.step',
    '2021-10-15T09:34:01',
    ( '' ),
    ( '' ),
    'SwSTEP 2.0',
    'SolidWorks 2019',
    '' );
FILE_SCHEMA (( 'CONFIG_CONTROL_DESIGN' ));
ENDSEC;

DATA;
#1 = DIRECTION ( 'NONE',  ( 3.491481338843133355E-15, 1.224646799147354045E-15, 1.000000000000000000 ) ) ;
#2 = CC_DESIGN_PERSON_AND_ORGANIZATION_ASSIGNMENT ( #213, #30, ( #182 ) ) ;
#3 = CIRCLE ( 'NONE', #49, 1.449999999999986855 ) ;
#4 = DIRECTION ( 'NONE',  ( 0.0000000000000000000, 1.000000000000000000, 0.0000000000000000000 ) ) ;
#5 = CC_DESIGN_APPROVAL ( #47, ( #182 ) ) ;
#6 = PLANE ( 'NONE',  #90 ) ;
#7 = APPROVAL_ROLE ( '' ) ;
#8 = VERTEX_POINT ( 'NONE', #151 ) ;
#9 = DIRECTION ( 'NONE',  ( -8.500656306261053449E-30, 1.000000000000000000, -2.392722035830121077E-15 ) ) ;
#10 = PERSON_AND_ORGANIZATION ( #46, #261 ) ;
#11 = DIRECTION ( 'NONE',  ( 3.491481338843133355E-15, 1.224646799147354045E-15, 1.000000000000000000 ) ) ;
#12 = ORIENTED_EDGE ( 'NONE', *, *, #174, .T. ) ;
#13 = ADVANCED_FACE ( 'NONE', ( #97 ), #68, .F. ) ;
#14 = SHAPE_DEFINITION_REPRESENTATION ( #85, #165 ) ;
#15 = CIRCLE ( 'NONE', #130, 1.449999999999986855 ) ;
#16 = DESIGN_CONTEXT ( 'detailed design', #239, 'design' ) ;
#17 = CARTESIAN_POINT ( 'NONE',  ( -3.491481338843130200E-15, -1.224646799147353059E-15, -0.9999999999999991118 ) ) ;
#18 = DIRECTION ( 'NONE',  ( -3.491481338843133355E-15, 1.224646799147353207E-16, -1.000000000000000000 ) ) ;
#19 = FACE_OUTER_BOUND ( 'NONE', #73, .T. ) ;
#20 = DIRECTION ( 'NONE',  ( -4.275831445896958607E-31, -1.000000000000000000, -1.224646799147353207E-16 ) ) ;
#21 = AXIS2_PLACEMENT_3D ( 'NONE', #243, #22, #100 ) ;
#22 = DIRECTION ( 'NONE',  ( -3.491481338843133355E-15, 1.224646799147353207E-16, -1.000000000000000000 ) ) ;
#23 = LOCAL_TIME ( 11, 34, 1.000000000000000000, #86 ) ;
#24 = ADVANCED_FACE ( 'NONE', ( #181 ), #150, .F. ) ;
#25 = DIRECTION ( 'NONE',  ( -4.250328153130453857E-30, 1.000000000000000000, -1.196361017915040028E-15 ) ) ;
#26 = CARTESIAN_POINT ( 'NONE',  ( 2.150752504727370399E-13, 1.499999999999989120, 61.60000000000000142 ) ) ;
#27 = PERSON_AND_ORGANIZATION_ROLE ( 'design_owner' ) ;
#28 = AXIS2_PLACEMENT_3D ( 'NONE', #128, #225, #226 ) ;
#29 =( LENGTH_UNIT ( ) NAMED_UNIT ( * ) SI_UNIT ( .MILLI., .METRE. ) );
#30 = PERSON_AND_ORGANIZATION_ROLE ( 'creator' ) ;
#31 = PERSON_AND_ORGANIZATION_ROLE ( 'design_supplier' ) ;
#32 = CC_DESIGN_APPROVAL ( #108, ( #99 ) ) ;
#33 = EDGE_LOOP ( 'NONE', ( #257 ) ) ;
#34 = EDGE_LOOP ( 'NONE', ( #250 ) ) ;
#35 = ORIENTED_EDGE ( 'NONE', *, *, #104, .F. ) ;
#36 = APPROVAL_PERSON_ORGANIZATION ( #215, #76, #7 ) ;
#37 = DIRECTION ( 'NONE',  ( -3.491481338843133355E-15, 1.224646799147353207E-16, -1.000000000000000000 ) ) ;
#38 = DIRECTION ( 'NONE',  ( 6.162975822039253521E-30, -1.000000000000000000, 1.734723475976834902E-15 ) ) ;
#39 = CLOSED_SHELL ( 'NONE', ( #141, #214, #13, #42, #121, #24 ) ) ;
#40 = CARTESIAN_POINT ( 'NONE',  ( 6.966422812792470016E-14, 2.443492194639711320E-14, 19.95262794416287377 ) ) ;
#41 = DIRECTION ( 'NONE',  ( -3.491481338843133355E-15, -1.224646799147354045E-15, -1.000000000000000000 ) ) ;
#42 = ADVANCED_FACE ( 'NONE', ( #143, #19 ), #166, .T. ) ;
#43 = FACE_OUTER_BOUND ( 'NONE', #176, .T. ) ;
#44 = CONICAL_SURFACE ( 'NONE', #78, 1.149999999999999245, 1.221730476396032161 ) ;
#45 = DIRECTION ( 'NONE',  ( 0.0000000000000000000, -1.000000000000000000, 0.0000000000000000000 ) ) ;
#46 = PERSON ( 'UNSPECIFIED', 'UNSPECIFIED', 'UNSPECIFIED', ('UNSPECIFIED'), ('UNSPECIFIED'), ('UNSPECIFIED') ) ;
#47 = APPROVAL ( #110, 'UNSPECIFIED' ) ;
#48 = CARTESIAN_POINT ( 'NONE',  ( 2.018350640459898052E-15, 1.449999999999999956, 0.5780785989045721385 ) ) ;
#49 = AXIS2_PLACEMENT_3D ( 'NONE', #65, #18, #45 ) ;
#50 = CALENDAR_DATE ( 2021, 15, 10 ) ;
#51 = DATE_AND_TIME ( #235, #195 ) ;
#52 = DATE_TIME_ROLE ( 'classification_date' ) ;
#53 = APPROVAL_DATE_TIME ( #258, #108 ) ;
#54 = PERSON_AND_ORGANIZATION_ROLE ( 'classification_officer' ) ;
#55 = ORIENTED_EDGE ( 'NONE', *, *, #254, .F. ) ;
#56 = ORIENTED_EDGE ( 'NONE', *, *, #111, .F. ) ;
#57 = AXIS2_PLACEMENT_3D ( 'NONE', #179, #37, #75 ) ;
#58 = APPROVAL_PERSON_ORGANIZATION ( #96, #108, #200 ) ;
#59 = DIRECTION ( 'NONE',  ( 3.491481338843133355E-15, -1.224646799147353207E-16, 1.000000000000000000 ) ) ;
#60 = FACE_OUTER_BOUND ( 'NONE', #157, .T. ) ;
#61 = APPROVAL_PERSON_ORGANIZATION ( #234, #47, #168 ) ;
#62 = FACE_OUTER_BOUND ( 'NONE', #136, .T. ) ;
#63 = CC_DESIGN_DATE_AND_TIME_ASSIGNMENT ( #51, #148, ( #182 ) ) ;
#64 = FACE_OUTER_BOUND ( 'NONE', #34, .T. ) ;
#65 = CARTESIAN_POINT ( 'NONE',  ( 5.237222008264700664E-14, 1.836970198721031324E-14, 15.00000000000000178 ) ) ;
#66 = CIRCLE ( 'NONE', #260, 1.149999999999999245 ) ;
#67 = MECHANICAL_CONTEXT ( 'NONE', #113, 'mechanical' ) ;
#68 = PLANE ( 'NONE',  #57 ) ;
#69 = APPROVAL_DATE_TIME ( #132, #47 ) ;
#70 = CONICAL_SURFACE ( 'NONE', #105, 1.099999999999996536, 0.7853981633974516097 ) ;
#71 = PERSON_AND_ORGANIZATION_ROLE ( 'creator' ) ;
#72 = CIRCLE ( 'NONE', #160, 1.099999999999996536 ) ;
#73 = EDGE_LOOP ( 'NONE', ( #120 ) ) ;
#74 = CALENDAR_DATE ( 2021, 15, 10 ) ;
#75 = DIRECTION ( 'NONE',  ( 4.275831445896958607E-31, 1.000000000000000000, 1.224646799147353207E-16 ) ) ;
#76 = APPROVAL ( #107, 'UNSPECIFIED' ) ;
#77 = CALENDAR_DATE ( 2021, 15, 10 ) ;
#78 = AXIS2_PLACEMENT_3D ( 'NONE', #188, #1, #163 ) ;
#79 = DIRECTION ( 'NONE',  ( -3.491481338843133355E-15, 1.224646799147353207E-16, -1.000000000000000000 ) ) ;
#80 = DIRECTION ( 'NONE',  ( 4.250328153130453857E-30, -1.000000000000000000, 1.196361017915040028E-15 ) ) ;
#81 = CARTESIAN_POINT ( 'NONE',  ( -3.491481338843130200E-15, -1.224646799147353059E-15, -0.9999999999999991118 ) ) ;
#82 = CARTESIAN_POINT ( 'NONE',  ( 1.461414572960022641E-15, 5.125952297358671408E-16, 0.4185657694061304945 ) ) ;
#83 = ADVANCED_FACE ( 'NONE', ( #43 ), #6, .T. ) ;
#84 = FACE_BOUND ( 'NONE', #92, .T. ) ;
#85 = PRODUCT_DEFINITION_SHAPE ( 'NONE', 'NONE',  #182 ) ;
#86 = COORDINATED_UNIVERSAL_TIME_OFFSET ( 1, 0, .AHEAD. ) ;
#87 = AXIS2_PLACEMENT_3D ( 'NONE', #229, #11, #109 ) ;
#88 = VERTEX_POINT ( 'NONE', #149 ) ;
#89 = EDGE_LOOP ( 'NONE', ( #217 ) ) ;
#90 = AXIS2_PLACEMENT_3D ( 'NONE', #145, #59, #205 ) ;
#91 = CALENDAR_DATE ( 2021, 15, 10 ) ;
#92 = EDGE_LOOP ( 'NONE', ( #55 ) ) ;
#93 = PERSON_AND_ORGANIZATION ( #46, #261 ) ;
#94 = CC_DESIGN_PERSON_AND_ORGANIZATION_ASSIGNMENT ( #10, #27, ( #193 ) ) ;
#95 = EDGE_LOOP ( 'NONE', ( #12 ) ) ;
#96 = PERSON_AND_ORGANIZATION ( #46, #261 ) ;
#97 = FACE_OUTER_BOUND ( 'NONE', #216, .T. ) ;
#98 = ADVANCED_FACE ( 'NONE', ( #139, #183 ), #127, .T. ) ;
#99 = SECURITY_CLASSIFICATION ( '', '', #114 ) ;
#100 = DIRECTION ( 'NONE',  ( 0.0000000000000000000, 1.000000000000000000, 0.0000000000000000000 ) ) ;
#101 = DIRECTION ( 'NONE',  ( -3.491481338843133355E-15, -1.224646799147354045E-15, -1.000000000000000000 ) ) ;
#102 = MANIFOLD_SOLID_BREP ( 'Corps-Déplacer/Copier1[1]', #39 ) ;
#103 = DIRECTION ( 'NONE',  ( -3.491481338843133355E-15, 1.224646799147353207E-16, -1.000000000000000000 ) ) ;
#104 = EDGE_CURVE ( 'NONE', #169, #169, #204, .T. ) ;
#105 = AXIS2_PLACEMENT_3D ( 'NONE', #124, #79, #4 ) ;
#106 = CARTESIAN_POINT ( 'NONE',  ( 2.164718430082742680E-13, -7.592810154713590230E-15, 62.00000000000000000 ) ) ;
#107 = APPROVAL_STATUS ( 'not_yet_approved' ) ;
#108 = APPROVAL ( #218, 'UNSPECIFIED' ) ;
#109 = DIRECTION ( 'NONE',  ( 8.217301096052239470E-30, -1.000000000000000000, 2.312964634635752127E-15 ) ) ;
#110 = APPROVAL_STATUS ( 'not_yet_approved' ) ;
#111 = EDGE_CURVE ( 'NONE', #133, #133, #72, .T. ) ;
#112 = COORDINATED_UNIVERSAL_TIME_OFFSET ( 1, 0, .AHEAD. ) ;
#113 = APPLICATION_CONTEXT ( 'configuration controlled 3d designs of mechanical parts and assemblies' ) ;
#114 = SECURITY_CLASSIFICATION_LEVEL ( 'unclassified' ) ;
#115 = LOCAL_TIME ( 11, 34, 1.000000000000000000, #180 ) ;
#116 = ORIENTED_EDGE ( 'NONE', *, *, #170, .T. ) ;
#117 = ORIENTED_EDGE ( 'NONE', *, *, #174, .F. ) ;
#118 = PERSON_AND_ORGANIZATION ( #46, #261 ) ;
#119 = AXIS2_PLACEMENT_3D ( 'NONE', #207, #223, #25 ) ;
#120 = ORIENTED_EDGE ( 'NONE', *, *, #170, .F. ) ;
#121 = ADVANCED_FACE ( 'NONE', ( #84, #167 ), #172, .T. ) ;
#122 = EDGE_LOOP ( 'NONE', ( #116 ) ) ;
#123 = DIRECTION ( 'NONE',  ( -4.354276396005927157E-30, 1.000000000000000000, -1.225619847157527489E-15 ) ) ;
#124 = CARTESIAN_POINT ( 'NONE',  ( 2.164718430082742680E-13, -7.592810154713590230E-15, 62.00000000000000000 ) ) ;
#125 = EDGE_CURVE ( 'NONE', #88, #88, #66, .T. ) ;
#126 = FACE_BOUND ( 'NONE', #202, .T. ) ;
#127 = CYLINDRICAL_SURFACE ( 'NONE', #220, 1.449999999999986855 ) ;
#128 = CARTESIAN_POINT ( 'NONE',  ( 0.0000000000000000000, 0.0000000000000000000, 0.0000000000000000000 ) ) ;
#129 = CARTESIAN_POINT ( 'NONE',  ( 0.0000000000000000000, 0.0000000000000000000, 0.0000000000000000000 ) ) ;
#130 = AXIS2_PLACEMENT_3D ( 'NONE', #263, #246, #161 ) ;
#131 = CARTESIAN_POINT ( 'NONE',  ( 5.237222008264700664E-14, -1.449999999999968425, 15.00000000000000178 ) ) ;
#132 = DATE_AND_TIME ( #50, #147 ) ;
#133 = VERTEX_POINT ( 'NONE', #171 ) ;
#134 = CIRCLE ( 'NONE', #87, 1.499999999999994005 ) ;
#135 = ORIENTED_EDGE ( 'NONE', *, *, #111, .T. ) ;
#136 = EDGE_LOOP ( 'NONE', ( #35 ) ) ;
#137 = DATE_AND_TIME ( #74, #228 ) ;
#138 = APPROVAL_DATE_TIME ( #256, #76 ) ;
#139 = FACE_OUTER_BOUND ( 'NONE', #95, .T. ) ;
#140 = FACE_BOUND ( 'NONE', #219, .T. ) ;
#141 = ADVANCED_FACE ( 'NONE', ( #64, #190 ), #262, .T. ) ;
#142 = DIRECTION ( 'NONE',  ( -4.250328153130490291E-30, 1.000000000000000000, -1.196361017915050283E-15 ) ) ;
#143 = FACE_OUTER_BOUND ( 'NONE', #201, .T. ) ;
#144 = PRODUCT_RELATED_PRODUCT_CATEGORY ( 'detail', '', ( #193 ) ) ;
#145 = CARTESIAN_POINT ( 'NONE',  ( 5.237222008264700033E-14, 1.124819836996383900E-32, 15.00000000000000000 ) ) ;
#146 = AXIS2_PLACEMENT_3D ( 'NONE', #158, #238, #20 ) ;
#147 = LOCAL_TIME ( 11, 34, 1.000000000000000000, #251 ) ;
#148 = DATE_TIME_ROLE ( 'creation_date' ) ;
#149 = CARTESIAN_POINT ( 'NONE',  ( 1.461414572960017513E-15, 1.149999999999999689, 0.4185657694061290512 ) ) ;
#150 = PLANE ( 'NONE',  #146 ) ;
#151 = CARTESIAN_POINT ( 'NONE',  ( 6.633814543801952113E-14, 1.449999999999997735, 19.00000000000000000 ) ) ;
#152 = EDGE_CURVE ( 'NONE', #230, #230, #177, .T. ) ;
#153 = PRODUCT_DEFINITION_FORMATION_WITH_SPECIFIED_SOURCE ( 'ANY', '', #193, .NOT_KNOWN. ) ;
#154 = APPLICATION_PROTOCOL_DEFINITION ( 'international standard', 'config_control_design', 1994, #239 ) ;
#155 = EDGE_LOOP ( 'NONE', ( #236 ) ) ;
#156 = UNCERTAINTY_MEASURE_WITH_UNIT (LENGTH_MEASURE( 1.000000000000000082E-05 ), #29, 'distance_accuracy_value', 'NONE');
#157 = EDGE_LOOP ( 'NONE', ( #237 ) ) ;
#158 = CARTESIAN_POINT ( 'NONE',  ( 5.237222008264700033E-14, 1.124819836996383900E-32, 15.00000000000000000 ) ) ;
#159 = COORDINATED_UNIVERSAL_TIME_OFFSET ( 1, 0, .AHEAD. ) ;
#160 = AXIS2_PLACEMENT_3D ( 'NONE', #106, #103, #245 ) ;
#161 = DIRECTION ( 'NONE',  ( 0.0000000000000000000, -1.000000000000000000, 0.0000000000000000000 ) ) ;
#162 = ADVANCED_FACE ( 'NONE', ( #126, #60 ), #164, .T. ) ;
#163 = DIRECTION ( 'NONE',  ( 4.354276396005927157E-30, -1.000000000000000000, 1.225619847157527489E-15 ) ) ;
#164 = CONICAL_SURFACE ( 'NONE', #227, 1.449999999999999289, 1.082104136236484937 ) ;
#165 = ADVANCED_BREP_SHAPE_REPRESENTATION ( '62846', ( #102, #192, #178 ), #185 ) ;
#166 = CYLINDRICAL_SURFACE ( 'NONE', #194, 1.449999999999986855 ) ;
#167 = FACE_OUTER_BOUND ( 'NONE', #33, .T. ) ;
#168 = APPROVAL_ROLE ( '' ) ;
#169 = VERTEX_POINT ( 'NONE', #26 ) ;
#170 = EDGE_CURVE ( 'NONE', #252, #252, #15, .T. ) ;
#171 = CARTESIAN_POINT ( 'NONE',  ( 2.164718430082742680E-13, 1.099999999999988987, 62.00000000000000000 ) ) ;
#172 = CONICAL_SURFACE ( 'NONE', #241, 1.999999999999968026, 0.5235987755982991487 ) ;
#173 = DIRECTION ( 'NONE',  ( 0.0000000000000000000, 0.0000000000000000000, 1.000000000000000000 ) ) ;
#174 = EDGE_CURVE ( 'NONE', #198, #198, #3, .T. ) ;
#175 = PERSON_AND_ORGANIZATION ( #46, #261 ) ;
#176 = EDGE_LOOP ( 'NONE', ( #117 ) ) ;
#177 = CIRCLE ( 'NONE', #119, 1.449999999999999289 ) ;
#178 = AXIS2_PLACEMENT_3D ( 'NONE', #129, #173, #212 ) ;
#179 = CARTESIAN_POINT ( 'NONE',  ( 2.164718430082742680E-13, 8.248678804640077261E-33, 62.00000000000000000 ) ) ;
#180 = COORDINATED_UNIVERSAL_TIME_OFFSET ( 1, 0, .AHEAD. ) ;
#181 = FACE_OUTER_BOUND ( 'NONE', #122, .T. ) ;
#182 = PRODUCT_DEFINITION ( 'UNKNOWN', '', #153, #16 ) ;
#183 = FACE_OUTER_BOUND ( 'NONE', #89, .T. ) ;
#184 = CLOSED_SHELL ( 'NONE', ( #83, #222, #162, #98 ) ) ;
#185 =( GEOMETRIC_REPRESENTATION_CONTEXT ( 3 ) GLOBAL_UNCERTAINTY_ASSIGNED_CONTEXT ( ( #156 ) ) GLOBAL_UNIT_ASSIGNED_CONTEXT ( ( #29, #253, #197 ) ) REPRESENTATION_CONTEXT ( 'NONE', 'WORKASPACE' ) );
#186 = CC_DESIGN_PERSON_AND_ORGANIZATION_ASSIGNMENT ( #93, #71, ( #153 ) ) ;
#187 = DIRECTION ( 'NONE',  ( 3.491481338843133355E-15, 1.224646799147354045E-15, 1.000000000000000000 ) ) ;
#188 = CARTESIAN_POINT ( 'NONE',  ( 1.461414572960022641E-15, 5.125952297358671408E-16, 0.4185657694061304945 ) ) ;
#189 = DIRECTION ( 'NONE',  ( 3.491481338843133355E-15, 1.224646799147354045E-15, 1.000000000000000000 ) ) ;
#190 = FACE_OUTER_BOUND ( 'NONE', #240, .T. ) ;
#191 = VERTEX_POINT ( 'NONE', #247 ) ;
#192 = MANIFOLD_SOLID_BREP ( 'Corps-Déplacer/Copier1[2]', #184 ) ;
#193 = PRODUCT ( '62846', '62846', '', ( #67 ) ) ;
#194 = AXIS2_PLACEMENT_3D ( 'NONE', #17, #244, #142 ) ;
#195 = LOCAL_TIME ( 11, 34, 1.000000000000000000, #112 ) ;
#196 = CC_DESIGN_DATE_AND_TIME_ASSIGNMENT ( #137, #52, ( #99 ) ) ;
#197 =( NAMED_UNIT ( * ) SI_UNIT ( $, .STERADIAN. ) SOLID_ANGLE_UNIT ( ) );
#198 = VERTEX_POINT ( 'NONE', #231 ) ;
#199 = CC_DESIGN_PERSON_AND_ORGANIZATION_ASSIGNMENT ( #118, #54, ( #99 ) ) ;
#200 = APPROVAL_ROLE ( '' ) ;
#201 = EDGE_LOOP ( 'NONE', ( #255 ) ) ;
#202 = EDGE_LOOP ( 'NONE', ( #203 ) ) ;
#203 = ORIENTED_EDGE ( 'NONE', *, *, #125, .F. ) ;
#204 = CIRCLE ( 'NONE', #21, 1.499999999999996669 ) ;
#205 = DIRECTION ( 'NONE',  ( -4.275831445896958607E-31, -1.000000000000000000, -1.224646799147353207E-16 ) ) ;
#206 = DIRECTION ( 'NONE',  ( -4.250328153130490291E-30, 1.000000000000000000, -1.196361017915050283E-15 ) ) ;
#207 = CARTESIAN_POINT ( 'NONE',  ( 2.018350640459904363E-15, 7.079421058040734347E-16, 0.5780785989045738038 ) ) ;
#208 = CARTESIAN_POINT ( 'NONE',  ( 2.018350640459904363E-15, 7.079421058040734347E-16, 0.5780785989045738038 ) ) ;
#209 = CIRCLE ( 'NONE', #248, 1.449999999999974420 ) ;
#210 = CC_DESIGN_APPROVAL ( #76, ( #153 ) ) ;
#211 = DIRECTION ( 'NONE',  ( -3.491481338843133355E-15, -1.224646799147354045E-15, -1.000000000000000000 ) ) ;
#212 = DIRECTION ( 'NONE',  ( 1.000000000000000000, 0.0000000000000000000, 0.0000000000000000000 ) ) ;
#213 = PERSON_AND_ORGANIZATION ( #46, #261 ) ;
#214 = ADVANCED_FACE ( 'NONE', ( #62, #140 ), #70, .T. ) ;
#215 = PERSON_AND_ORGANIZATION ( #46, #261 ) ;
#216 = EDGE_LOOP ( 'NONE', ( #56 ) ) ;
#217 = ORIENTED_EDGE ( 'NONE', *, *, #152, .F. ) ;
#218 = APPROVAL_STATUS ( 'not_yet_approved' ) ;
#219 = EDGE_LOOP ( 'NONE', ( #135 ) ) ;
#220 = AXIS2_PLACEMENT_3D ( 'NONE', #81, #211, #206 ) ;
#221 = ORIENTED_EDGE ( 'NONE', *, *, #104, .T. ) ;
#222 = ADVANCED_FACE ( 'NONE', ( #242 ), #44, .T. ) ;
#223 = DIRECTION ( 'NONE',  ( -3.491481338843133355E-15, -1.224646799147354045E-15, -1.000000000000000000 ) ) ;
#224 = CARTESIAN_POINT ( 'NONE',  ( 6.633814543801953375E-14, 2.326828918379972864E-14, 19.00000000000000355 ) ) ;
#225 = DIRECTION ( 'NONE',  ( -3.491481338843133355E-15, 1.224646799147353207E-16, -1.000000000000000000 ) ) ;
#226 = DIRECTION ( 'NONE',  ( 4.275831445896958607E-31, 1.000000000000000000, 1.224646799147353207E-16 ) ) ;
#227 = AXIS2_PLACEMENT_3D ( 'NONE', #208, #187, #80 ) ;
#228 = LOCAL_TIME ( 11, 34, 1.000000000000000000, #159 ) ;
#229 = CARTESIAN_POINT ( 'NONE',  ( 6.664051659164739778E-14, 2.337434670767225830E-14, 19.08660254037847892 ) ) ;
#230 = VERTEX_POINT ( 'NONE', #48 ) ;
#231 = CARTESIAN_POINT ( 'NONE',  ( 5.237222008264700664E-14, -1.449999999999968425, 15.00000000000000178 ) ) ;
#232 = CC_DESIGN_SECURITY_CLASSIFICATION ( #99, ( #153 ) ) ;
#233 = CC_DESIGN_PERSON_AND_ORGANIZATION_ASSIGNMENT ( #175, #31, ( #153 ) ) ;
#234 = PERSON_AND_ORGANIZATION ( #46, #261 ) ;
#235 = CALENDAR_DATE ( 2021, 15, 10 ) ;
#236 = ORIENTED_EDGE ( 'NONE', *, *, #125, .T. ) ;
#237 = ORIENTED_EDGE ( 'NONE', *, *, #152, .T. ) ;
#238 = DIRECTION ( 'NONE',  ( 3.491481338843133355E-15, -1.224646799147353207E-16, 1.000000000000000000 ) ) ;
#239 = APPLICATION_CONTEXT ( 'configuration controlled 3d designs of mechanical parts and assemblies' ) ;
#240 = EDGE_LOOP ( 'NONE', ( #221 ) ) ;
#241 = AXIS2_PLACEMENT_3D ( 'NONE', #40, #189, #38 ) ;
#242 = FACE_OUTER_BOUND ( 'NONE', #155, .T. ) ;
#243 = CARTESIAN_POINT ( 'NONE',  ( 2.150752504727370399E-13, -7.543824282747695224E-15, 61.60000000000000142 ) ) ;
#244 = DIRECTION ( 'NONE',  ( -3.491481338843133355E-15, -1.224646799147354045E-15, -1.000000000000000000 ) ) ;
#245 = DIRECTION ( 'NONE',  ( 0.0000000000000000000, 1.000000000000000000, 0.0000000000000000000 ) ) ;
#246 = DIRECTION ( 'NONE',  ( -3.491481338843133355E-15, 1.224646799147353207E-16, -1.000000000000000000 ) ) ;
#247 = CARTESIAN_POINT ( 'NONE',  ( 6.664051659164741040E-14, -1.499999999999970468, 19.08660254037848247 ) ) ;
#248 = AXIS2_PLACEMENT_3D ( 'NONE', #224, #41, #9 ) ;
#249 = APPLICATION_PROTOCOL_DEFINITION ( 'international standard', 'config_control_design', 1994, #113 ) ;
#250 = ORIENTED_EDGE ( 'NONE', *, *, #259, .T. ) ;
#251 = COORDINATED_UNIVERSAL_TIME_OFFSET ( 1, 0, .AHEAD. ) ;
#252 = VERTEX_POINT ( 'NONE', #131 ) ;
#253 =( NAMED_UNIT ( * ) PLANE_ANGLE_UNIT ( ) SI_UNIT ( $, .RADIAN. ) );
#254 = EDGE_CURVE ( 'NONE', #8, #8, #209, .T. ) ;
#255 = ORIENTED_EDGE ( 'NONE', *, *, #254, .T. ) ;
#256 = DATE_AND_TIME ( #91, #23 ) ;
#257 = ORIENTED_EDGE ( 'NONE', *, *, #259, .F. ) ;
#258 = DATE_AND_TIME ( #77, #115 ) ;
#259 = EDGE_CURVE ( 'NONE', #191, #191, #134, .T. ) ;
#260 = AXIS2_PLACEMENT_3D ( 'NONE', #82, #101, #123 ) ;
#261 = ORGANIZATION ( 'UNSPECIFIED', 'UNSPECIFIED', '' ) ;
#262 = CYLINDRICAL_SURFACE ( 'NONE', #28, 1.499999999999994005 ) ;
#263 = CARTESIAN_POINT ( 'NONE',  ( 5.237222008264700664E-14, 1.836970198721031324E-14, 15.00000000000000178 ) ) ;
ENDSEC;
END-ISO-10303-21;
