ISO-10303-21;
HEADER;
FILE_DESCRIPTION (( 'STEP AP203' ),
    '1' );
FILE_NAME ('62845.step',
    '2021-10-15T09:34:00',
    ( '' ),
    ( '' ),
    'SwSTEP 2.0',
    'SolidWorks 2019',
    '' );
FILE_SCHEMA (( 'CONFIG_CONTROL_DESIGN' ));
ENDSEC;

DATA;
#1 = ORIENTED_EDGE ( 'NONE', *, *, #179, .F. ) ;
#2 = DIRECTION ( 'NONE',  ( -3.491481338843133355E-15, -1.224646799147354045E-15, -1.000000000000000000 ) ) ;
#3 = ORGANIZATION ( 'UNSPECIFIED', 'UNSPECIFIED', '' ) ;
#4 = DIRECTION ( 'NONE',  ( 0.0000000000000000000, 1.000000000000000000, 0.0000000000000000000 ) ) ;
#5 = APPROVAL ( #162, 'UNSPECIFIED' ) ;
#6 = CARTESIAN_POINT ( 'NONE',  ( 2.150752504727370399E-13, -7.543824282747695224E-15, 61.60000000000000142 ) ) ;
#7 = FACE_BOUND ( 'NONE', #87, .T. ) ;
#8 = AXIS2_PLACEMENT_3D ( 'NONE', #94, #2, #4 ) ;
#9 = CIRCLE ( 'NONE', #157, 1.399999999999999245 ) ;
#10 = DIRECTION ( 'NONE',  ( 3.491481338843133355E-15, 1.224646799147354045E-15, 1.000000000000000000 ) ) ;
#11 = PERSON_AND_ORGANIZATION_ROLE ( 'creator' ) ;
#12 = AXIS2_PLACEMENT_3D ( 'NONE', #65, #234, #25 ) ;
#13 = AXIS2_PLACEMENT_3D ( 'NONE', #6, #249, #229 ) ;
#14 = CARTESIAN_POINT ( 'NONE',  ( 2.164718430082742680E-13, 1.099999999999988987, 62.00000000000000000 ) ) ;
#15 = CARTESIAN_POINT ( 'NONE',  ( 1.429644690939152948E-15, 5.014518551763919160E-16, 0.4094665135494755526 ) ) ;
#16 = PERSON_AND_ORGANIZATION ( #196, #3 ) ;
#17 = CIRCLE ( 'NONE', #8, 1.399999999999974820 ) ;
#18 = CC_DESIGN_PERSON_AND_ORGANIZATION_ASSIGNMENT ( #158, #11, ( #227 ) ) ;
#19 = DIRECTION ( 'NONE',  ( 0.0000000000000000000, 0.0000000000000000000, 1.000000000000000000 ) ) ;
#20 = EDGE_LOOP ( 'NONE', ( #34 ) ) ;
#21 = DATE_AND_TIME ( #169, #213 ) ;
#22 = EDGE_LOOP ( 'NONE', ( #127 ) ) ;
#23 = FACE_OUTER_BOUND ( 'NONE', #185, .T. ) ;
#24 = PLANE ( 'NONE',  #126 ) ;
#25 = DIRECTION ( 'NONE',  ( 4.275831445896958607E-31, 1.000000000000000000, 1.224646799147353207E-16 ) ) ;
#26 = CARTESIAN_POINT ( 'NONE',  ( -3.491481338843130200E-15, -1.224646799147353059E-15, -0.9999999999999991118 ) ) ;
#27 = APPLICATION_CONTEXT ( 'configuration controlled 3d designs of mechanical parts and assemblies' ) ;
#28 = CC_DESIGN_PERSON_AND_ORGANIZATION_ASSIGNMENT ( #102, #30, ( #217 ) ) ;
#29 = DIRECTION ( 'NONE',  ( 0.0000000000000000000, -1.000000000000000000, 0.0000000000000000000 ) ) ;
#30 = PERSON_AND_ORGANIZATION_ROLE ( 'classification_officer' ) ;
#31 = PERSON_AND_ORGANIZATION ( #196, #3 ) ;
#32 = CARTESIAN_POINT ( 'NONE',  ( 5.237222008264700664E-14, -1.399999999999968825, 15.00000000000000178 ) ) ;
#33 = CARTESIAN_POINT ( 'NONE',  ( 6.694288774527514821E-14, -1.499999999999970468, 19.17320508075692587 ) ) ;
#34 = ORIENTED_EDGE ( 'NONE', *, *, #189, .F. ) ;
#35 = CARTESIAN_POINT ( 'NONE',  ( 0.0000000000000000000, 0.0000000000000000000, 0.0000000000000000000 ) ) ;
#36 = ORIENTED_EDGE ( 'NONE', *, *, #197, .T. ) ;
#37 = ORIENTED_EDGE ( 'NONE', *, *, #260, .T. ) ;
#38 = AXIS2_PLACEMENT_3D ( 'NONE', #233, #188, #29 ) ;
#39 =( GEOMETRIC_REPRESENTATION_CONTEXT ( 3 ) GLOBAL_UNCERTAINTY_ASSIGNED_CONTEXT ( ( #164 ) ) GLOBAL_UNIT_ASSIGNED_CONTEXT ( ( #142, #222, #160 ) ) REPRESENTATION_CONTEXT ( 'NONE', 'WORKASPACE' ) );
#40 = EDGE_LOOP ( 'NONE', ( #226 ) ) ;
#41 = CARTESIAN_POINT ( 'NONE',  ( 1.429644690939152948E-15, 5.014518551763919160E-16, 0.4094665135494755526 ) ) ;
#42 = CARTESIAN_POINT ( 'NONE',  ( 2.164718430082742680E-13, -7.592810154713590230E-15, 62.00000000000000000 ) ) ;
#43 = CC_DESIGN_PERSON_AND_ORGANIZATION_ASSIGNMENT ( #16, #220, ( #227 ) ) ;
#44 = DIRECTION ( 'NONE',  ( 4.275831445896958607E-31, 1.000000000000000000, 1.224646799147353207E-16 ) ) ;
#45 = CC_DESIGN_SECURITY_CLASSIFICATION ( #217, ( #227 ) ) ;
#46 = ORIENTED_EDGE ( 'NONE', *, *, #59, .T. ) ;
#47 = ADVANCED_FACE ( 'NONE', ( #175, #115 ), #161, .T. ) ;
#48 = DIRECTION ( 'NONE',  ( 3.491481338843133355E-15, -1.224646799147353207E-16, 1.000000000000000000 ) ) ;
#49 = DATE_TIME_ROLE ( 'creation_date' ) ;
#50 = AXIS2_PLACEMENT_3D ( 'NONE', #134, #10, #151 ) ;
#51 = CONICAL_SURFACE ( 'NONE', #109, 1.099999999999996536, 0.7853981633974516097 ) ;
#52 = DATE_AND_TIME ( #140, #81 ) ;
#53 = APPROVAL_ROLE ( '' ) ;
#54 = CARTESIAN_POINT ( 'NONE',  ( 2.164718430082742680E-13, -7.592810154713590230E-15, 62.00000000000000000 ) ) ;
#55 = SECURITY_CLASSIFICATION_LEVEL ( 'unclassified' ) ;
#56 = AXIS2_PLACEMENT_3D ( 'NONE', #67, #214, #128 ) ;
#57 = FACE_BOUND ( 'NONE', #245, .T. ) ;
#58 = CARTESIAN_POINT ( 'NONE',  ( 2.150752504727370399E-13, 1.499999999999989120, 61.60000000000000142 ) ) ;
#59 = EDGE_CURVE ( 'NONE', #257, #257, #108, .T. ) ;
#60 = EDGE_LOOP ( 'NONE', ( #46 ) ) ;
#61 = DIRECTION ( 'NONE',  ( -3.491481338843133355E-15, -1.224646799147354045E-15, -1.000000000000000000 ) ) ;
#62 = PERSON_AND_ORGANIZATION_ROLE ( 'design_owner' ) ;
#63 = ORIENTED_EDGE ( 'NONE', *, *, #197, .F. ) ;
#64 = EDGE_LOOP ( 'NONE', ( #125 ) ) ;
#65 = CARTESIAN_POINT ( 'NONE',  ( 2.164718430082742680E-13, 8.248678804640077261E-33, 62.00000000000000000 ) ) ;
#66 = ADVANCED_FACE ( 'NONE', ( #23, #230 ), #215, .T. ) ;
#67 = CARTESIAN_POINT ( 'NONE',  ( 6.694288774527513559E-14, 2.348040423154474064E-14, 19.17320508075692231 ) ) ;
#68 = DIRECTION ( 'NONE',  ( -3.491481338843133355E-15, 1.224646799147353207E-16, -1.000000000000000000 ) ) ;
#69 = EDGE_LOOP ( 'NONE', ( #224 ) ) ;
#70 = AXIS2_PLACEMENT_3D ( 'NONE', #93, #114, #44 ) ;
#71 = APPROVAL_PERSON_ORGANIZATION ( #120, #72, #106 ) ;
#72 = APPROVAL ( #262, 'UNSPECIFIED' ) ;
#73 = CYLINDRICAL_SURFACE ( 'NONE', #250, 1.399999999999987255 ) ;
#74 = DIRECTION ( 'NONE',  ( -3.491481338843133355E-15, -1.224646799147354045E-15, -1.000000000000000000 ) ) ;
#75 = APPROVAL_ROLE ( '' ) ;
#76 = CC_DESIGN_PERSON_AND_ORGANIZATION_ASSIGNMENT ( #211, #200, ( #207 ) ) ;
#77 = COORDINATED_UNIVERSAL_TIME_OFFSET ( 1, 0, .AHEAD. ) ;
#78 = CARTESIAN_POINT ( 'NONE',  ( 1.940169419480704931E-15, 1.399999999999999911, 0.5556866072563803050 ) ) ;
#79 = ADVANCED_FACE ( 'NONE', ( #111 ), #243, .F. ) ;
#80 = CIRCLE ( 'NONE', #182, 1.099999999999996536 ) ;
#81 = LOCAL_TIME ( 11, 34, 0.0000000000000000000, #258 ) ;
#82 = CARTESIAN_POINT ( 'NONE',  ( 5.237222008264700664E-14, -1.399999999999968825, 15.00000000000000178 ) ) ;
#83 = CARTESIAN_POINT ( 'NONE',  ( 6.633814543801950851E-14, 1.399999999999998135, 18.99999999999999645 ) ) ;
#84 = ORIENTED_EDGE ( 'NONE', *, *, #59, .F. ) ;
#85 = FACE_OUTER_BOUND ( 'NONE', #20, .T. ) ;
#86 = COORDINATED_UNIVERSAL_TIME_OFFSET ( 1, 0, .AHEAD. ) ;
#87 = EDGE_LOOP ( 'NONE', ( #146 ) ) ;
#88 = PRODUCT_RELATED_PRODUCT_CATEGORY ( 'detail', '', ( #186 ) ) ;
#89 = AXIS2_PLACEMENT_3D ( 'NONE', #113, #171, #191 ) ;
#90 = DIRECTION ( 'NONE',  ( 4.402125587170827209E-30, -1.000000000000000000, 1.239088197126291458E-15 ) ) ;
#91 = DIRECTION ( 'NONE',  ( -3.491481338843133355E-15, -1.224646799147354045E-15, -1.000000000000000000 ) ) ;
#92 = EDGE_CURVE ( 'NONE', #165, #165, #17, .T. ) ;
#93 = CARTESIAN_POINT ( 'NONE',  ( 0.0000000000000000000, 0.0000000000000000000, 0.0000000000000000000 ) ) ;
#94 = CARTESIAN_POINT ( 'NONE',  ( 6.633814543801950851E-14, 2.326828918379972548E-14, 18.99999999999999645 ) ) ;
#95 = AXIS2_PLACEMENT_3D ( 'NONE', #35, #19, #105 ) ;
#96 = CARTESIAN_POINT ( 'NONE',  ( 1.940169419480710848E-15, 6.805198249055809366E-16, 0.5556866072563819703 ) ) ;
#97 = LOCAL_TIME ( 11, 34, 0.0000000000000000000, #178 ) ;
#98 = DATE_AND_TIME ( #177, #97 ) ;
#99 = DIRECTION ( 'NONE',  ( -3.491481338843133355E-15, 1.224646799147353207E-16, -1.000000000000000000 ) ) ;
#100 = CC_DESIGN_DATE_AND_TIME_ASSIGNMENT ( #118, #198, ( #217 ) ) ;
#101 = CARTESIAN_POINT ( 'NONE',  ( -3.491481338843130200E-15, -1.224646799147353059E-15, -0.9999999999999991118 ) ) ;
#102 = PERSON_AND_ORGANIZATION ( #196, #3 ) ;
#103 = CIRCLE ( 'NONE', #202, 1.399999999999987255 ) ;
#104 = VERTEX_POINT ( 'NONE', #78 ) ;
#105 = DIRECTION ( 'NONE',  ( 1.000000000000000000, 0.0000000000000000000, 0.0000000000000000000 ) ) ;
#106 = APPROVAL_ROLE ( '' ) ;
#107 = ORIENTED_EDGE ( 'NONE', *, *, #260, .F. ) ;
#108 = CIRCLE ( 'NONE', #38, 1.399999999999987255 ) ;
#109 = AXIS2_PLACEMENT_3D ( 'NONE', #54, #99, #199 ) ;
#110 = EDGE_LOOP ( 'NONE', ( #63 ) ) ;
#111 = FACE_OUTER_BOUND ( 'NONE', #187, .T. ) ;
#112 = DIRECTION ( 'NONE',  ( -3.491481338843133355E-15, 1.224646799147353207E-16, -1.000000000000000000 ) ) ;
#113 = CARTESIAN_POINT ( 'NONE',  ( 5.237222008264700033E-14, 1.124819836996383900E-32, 15.00000000000000000 ) ) ;
#114 = DIRECTION ( 'NONE',  ( -3.491481338843133355E-15, 1.224646799147353207E-16, -1.000000000000000000 ) ) ;
#115 = FACE_OUTER_BOUND ( 'NONE', #166, .T. ) ;
#116 = CC_DESIGN_APPROVAL ( #176, ( #217 ) ) ;
#117 = PERSON_AND_ORGANIZATION ( #196, #3 ) ;
#118 = DATE_AND_TIME ( #235, #251 ) ;
#119 = PERSON_AND_ORGANIZATION ( #196, #3 ) ;
#120 = PERSON_AND_ORGANIZATION ( #196, #3 ) ;
#121 = APPROVAL_STATUS ( 'not_yet_approved' ) ;
#122 = DESIGN_CONTEXT ( 'detailed design', #27, 'design' ) ;
#123 = DIRECTION ( 'NONE',  ( 4.279844320860526998E-30, -1.000000000000000000, 1.204669080539450182E-15 ) ) ;
#124 = FACE_OUTER_BOUND ( 'NONE', #147, .T. ) ;
#125 = ORIENTED_EDGE ( 'NONE', *, *, #92, .T. ) ;
#126 = AXIS2_PLACEMENT_3D ( 'NONE', #246, #48, #152 ) ;
#127 = ORIENTED_EDGE ( 'NONE', *, *, #148, .F. ) ;
#128 = DIRECTION ( 'NONE',  ( 8.217301096052239470E-30, -1.000000000000000000, 2.312964634635752127E-15 ) ) ;
#129 = DIRECTION ( 'NONE',  ( 0.0000000000000000000, 1.000000000000000000, 0.0000000000000000000 ) ) ;
#130 = LOCAL_TIME ( 11, 34, 0.0000000000000000000, #136 ) ;
#131 = PLANE ( 'NONE',  #89 ) ;
#132 = APPLICATION_CONTEXT ( 'configuration controlled 3d designs of mechanical parts and assemblies' ) ;
#133 = ORIENTED_EDGE ( 'NONE', *, *, #179, .T. ) ;
#134 = CARTESIAN_POINT ( 'NONE',  ( 6.996659928155246321E-14, 2.454097947026960500E-14, 20.03923048454132072 ) ) ;
#135 = ADVANCED_FACE ( 'NONE', ( #212, #210 ), #73, .T. ) ;
#136 = COORDINATED_UNIVERSAL_TIME_OFFSET ( 1, 0, .AHEAD. ) ;
#137 = CALENDAR_DATE ( 2021, 15, 10 ) ;
#138 = VERTEX_POINT ( 'NONE', #14 ) ;
#139 = CIRCLE ( 'NONE', #56, 1.499999999999994005 ) ;
#140 = CALENDAR_DATE ( 2021, 15, 10 ) ;
#141 = APPLICATION_PROTOCOL_DEFINITION ( 'international standard', 'config_control_design', 1994, #132 ) ;
#142 =( LENGTH_UNIT ( ) NAMED_UNIT ( * ) SI_UNIT ( .MILLI., .METRE. ) );
#143 = PRODUCT_DEFINITION_SHAPE ( 'NONE', 'NONE',  #207 ) ;
#144 = DIRECTION ( 'NONE',  ( -4.402125587170865044E-30, 1.000000000000000000, -1.239088197126302108E-15 ) ) ;
#145 = APPLICATION_PROTOCOL_DEFINITION ( 'international standard', 'config_control_design', 1994, #27 ) ;
#146 = ORIENTED_EDGE ( 'NONE', *, *, #92, .F. ) ;
#147 = EDGE_LOOP ( 'NONE', ( #206 ) ) ;
#148 = EDGE_CURVE ( 'NONE', #156, #156, #139, .T. ) ;
#149 = EDGE_LOOP ( 'NONE', ( #36 ) ) ;
#150 = CONICAL_SURFACE ( 'NONE', #232, 1.124999999999999334, 1.221730476396032161 ) ;
#151 = DIRECTION ( 'NONE',  ( 6.162975822039254923E-30, -1.000000000000000000, 1.734723475976835296E-15 ) ) ;
#152 = DIRECTION ( 'NONE',  ( -4.275831445896958607E-31, -1.000000000000000000, -1.224646799147353207E-16 ) ) ;
#153 = FACE_OUTER_BOUND ( 'NONE', #22, .T. ) ;
#154 = DIRECTION ( 'NONE',  ( -3.491481338843133355E-15, -1.224646799147354045E-15, -1.000000000000000000 ) ) ;
#155 = DIRECTION ( 'NONE',  ( 3.491481338843133355E-15, 1.224646799147354045E-15, 1.000000000000000000 ) ) ;
#156 = VERTEX_POINT ( 'NONE', #33 ) ;
#157 = AXIS2_PLACEMENT_3D ( 'NONE', #96, #61, #167 ) ;
#158 = PERSON_AND_ORGANIZATION ( #196, #3 ) ;
#159 = APPROVAL_DATE_TIME ( #52, #176 ) ;
#160 =( NAMED_UNIT ( * ) SI_UNIT ( $, .STERADIAN. ) SOLID_ANGLE_UNIT ( ) );
#161 = CONICAL_SURFACE ( 'NONE', #236, 1.399999999999999245, 1.082104136236484937 ) ;
#162 = APPROVAL_STATUS ( 'not_yet_approved' ) ;
#163 = CIRCLE ( 'NONE', #13, 1.499999999999996669 ) ;
#164 = UNCERTAINTY_MEASURE_WITH_UNIT (LENGTH_MEASURE( 1.000000000000000082E-05 ), #142, 'distance_accuracy_value', 'NONE');
#165 = VERTEX_POINT ( 'NONE', #83 ) ;
#166 = EDGE_LOOP ( 'NONE', ( #37 ) ) ;
#167 = DIRECTION ( 'NONE',  ( -4.402125587170827209E-30, 1.000000000000000000, -1.239088197126291458E-15 ) ) ;
#168 = CC_DESIGN_APPROVAL ( #72, ( #207 ) ) ;
#169 = CALENDAR_DATE ( 2021, 15, 10 ) ;
#170 = ADVANCED_FACE ( 'NONE', ( #193 ), #24, .T. ) ;
#171 = DIRECTION ( 'NONE',  ( 3.491481338843133355E-15, -1.224646799147353207E-16, 1.000000000000000000 ) ) ;
#172 = CONICAL_SURFACE ( 'NONE', #50, 1.999999999999967581, 0.5235987755982938197 ) ;
#173 = AXIS2_PLACEMENT_3D ( 'NONE', #41, #154, #181 ) ;
#174 = DIRECTION ( 'NONE',  ( -4.402125587170865044E-30, 1.000000000000000000, -1.239088197126302108E-15 ) ) ;
#175 = FACE_BOUND ( 'NONE', #69, .T. ) ;
#176 = APPROVAL ( #121, 'UNSPECIFIED' ) ;
#177 = CALENDAR_DATE ( 2021, 15, 10 ) ;
#178 = COORDINATED_UNIVERSAL_TIME_OFFSET ( 1, 0, .AHEAD. ) ;
#179 = EDGE_CURVE ( 'NONE', #138, #138, #80, .T. ) ;
#180 = VERTEX_POINT ( 'NONE', #32 ) ;
#181 = DIRECTION ( 'NONE',  ( -4.279844320860526998E-30, 1.000000000000000000, -1.204669080539450182E-15 ) ) ;
#182 = AXIS2_PLACEMENT_3D ( 'NONE', #42, #68, #129 ) ;
#183 = ADVANCED_FACE ( 'NONE', ( #7, #153 ), #172, .T. ) ;
#184 = APPROVAL_DATE_TIME ( #21, #72 ) ;
#185 = EDGE_LOOP ( 'NONE', ( #263 ) ) ;
#186 = PRODUCT ( '62845', '62845', '', ( #201 ) ) ;
#187 = EDGE_LOOP ( 'NONE', ( #1 ) ) ;
#188 = DIRECTION ( 'NONE',  ( -3.491481338843133355E-15, 1.224646799147353207E-16, -1.000000000000000000 ) ) ;
#189 = EDGE_CURVE ( 'NONE', #180, #180, #103, .T. ) ;
#190 = DIRECTION ( 'NONE',  ( 0.0000000000000000000, -1.000000000000000000, 0.0000000000000000000 ) ) ;
#191 = DIRECTION ( 'NONE',  ( -4.275831445896958607E-31, -1.000000000000000000, -1.224646799147353207E-16 ) ) ;
#192 = ADVANCED_FACE ( 'NONE', ( #231 ), #131, .F. ) ;
#193 = FACE_OUTER_BOUND ( 'NONE', #195, .T. ) ;
#194 = CLOSED_SHELL ( 'NONE', ( #66, #223, #79, #241, #183, #192 ) ) ;
#195 = EDGE_LOOP ( 'NONE', ( #84 ) ) ;
#196 = PERSON ( 'UNSPECIFIED', 'UNSPECIFIED', 'UNSPECIFIED', ('UNSPECIFIED'), ('UNSPECIFIED'), ('UNSPECIFIED') ) ;
#197 = EDGE_CURVE ( 'NONE', #255, #255, #163, .T. ) ;
#198 = DATE_TIME_ROLE ( 'classification_date' ) ;
#199 = DIRECTION ( 'NONE',  ( 0.0000000000000000000, 1.000000000000000000, 0.0000000000000000000 ) ) ;
#200 = PERSON_AND_ORGANIZATION_ROLE ( 'creator' ) ;
#201 = MECHANICAL_CONTEXT ( 'NONE', #132, 'mechanical' ) ;
#202 = AXIS2_PLACEMENT_3D ( 'NONE', #216, #112, #190 ) ;
#203 = APPROVAL_PERSON_ORGANIZATION ( #117, #176, #75 ) ;
#204 = VERTEX_POINT ( 'NONE', #205 ) ;
#205 = CARTESIAN_POINT ( 'NONE',  ( 1.429644690939148017E-15, 1.124999999999999778, 0.4094665135494742203 ) ) ;
#206 = ORIENTED_EDGE ( 'NONE', *, *, #218, .T. ) ;
#207 = PRODUCT_DEFINITION ( 'UNKNOWN', '', #227, #122 ) ;
#208 = CC_DESIGN_APPROVAL ( #5, ( #227 ) ) ;
#209 = ADVANCED_BREP_SHAPE_REPRESENTATION ( '62845', ( #247, #248, #95 ), #39 ) ;
#210 = FACE_OUTER_BOUND ( 'NONE', #261, .T. ) ;
#211 = PERSON_AND_ORGANIZATION ( #196, #3 ) ;
#212 = FACE_OUTER_BOUND ( 'NONE', #60, .T. ) ;
#213 = LOCAL_TIME ( 11, 34, 0.0000000000000000000, #86 ) ;
#214 = DIRECTION ( 'NONE',  ( 3.491481338843133355E-15, 1.224646799147354045E-15, 1.000000000000000000 ) ) ;
#215 = CYLINDRICAL_SURFACE ( 'NONE', #70, 1.499999999999994005 ) ;
#216 = CARTESIAN_POINT ( 'NONE',  ( 5.237222008264700664E-14, 1.836970198721031324E-14, 15.00000000000000178 ) ) ;
#217 = SECURITY_CLASSIFICATION ( '', '', #55 ) ;
#218 = EDGE_CURVE ( 'NONE', #204, #204, #242, .T. ) ;
#219 = SHAPE_DEFINITION_REPRESENTATION ( #143, #209 ) ;
#220 = PERSON_AND_ORGANIZATION_ROLE ( 'design_supplier' ) ;
#221 = AXIS2_PLACEMENT_3D ( 'NONE', #101, #74, #144 ) ;
#222 =( NAMED_UNIT ( * ) PLANE_ANGLE_UNIT ( ) SI_UNIT ( $, .RADIAN. ) );
#223 = ADVANCED_FACE ( 'NONE', ( #240, #57 ), #51, .T. ) ;
#224 = ORIENTED_EDGE ( 'NONE', *, *, #218, .F. ) ;
#225 = CC_DESIGN_DATE_AND_TIME_ASSIGNMENT ( #98, #49, ( #207 ) ) ;
#226 = ORIENTED_EDGE ( 'NONE', *, *, #189, .T. ) ;
#227 = PRODUCT_DEFINITION_FORMATION_WITH_SPECIFIED_SOURCE ( 'ANY', '', #186, .NOT_KNOWN. ) ;
#228 = ADVANCED_FACE ( 'NONE', ( #124 ), #150, .T. ) ;
#229 = DIRECTION ( 'NONE',  ( 0.0000000000000000000, 1.000000000000000000, 0.0000000000000000000 ) ) ;
#230 = FACE_OUTER_BOUND ( 'NONE', #149, .T. ) ;
#231 = FACE_OUTER_BOUND ( 'NONE', #40, .T. ) ;
#232 = AXIS2_PLACEMENT_3D ( 'NONE', #15, #238, #123 ) ;
#233 = CARTESIAN_POINT ( 'NONE',  ( 5.237222008264700664E-14, 1.836970198721031324E-14, 15.00000000000000178 ) ) ;
#234 = DIRECTION ( 'NONE',  ( -3.491481338843133355E-15, 1.224646799147353207E-16, -1.000000000000000000 ) ) ;
#235 = CALENDAR_DATE ( 2021, 15, 10 ) ;
#236 = AXIS2_PLACEMENT_3D ( 'NONE', #252, #155, #90 ) ;
#237 = APPROVAL_PERSON_ORGANIZATION ( #119, #5, #53 ) ;
#238 = DIRECTION ( 'NONE',  ( 3.491481338843133355E-15, 1.224646799147354045E-15, 1.000000000000000000 ) ) ;
#239 = CYLINDRICAL_SURFACE ( 'NONE', #221, 1.399999999999987255 ) ;
#240 = FACE_OUTER_BOUND ( 'NONE', #110, .T. ) ;
#241 = ADVANCED_FACE ( 'NONE', ( #259, #85 ), #239, .T. ) ;
#242 = CIRCLE ( 'NONE', #173, 1.124999999999999334 ) ;
#243 = PLANE ( 'NONE',  #12 ) ;
#244 = CLOSED_SHELL ( 'NONE', ( #170, #228, #47, #135 ) ) ;
#245 = EDGE_LOOP ( 'NONE', ( #133 ) ) ;
#246 = CARTESIAN_POINT ( 'NONE',  ( 5.237222008264700033E-14, 1.124819836996383900E-32, 15.00000000000000000 ) ) ;
#247 = MANIFOLD_SOLID_BREP ( 'Corps-Déplacer/Copier1[1]', #194 ) ;
#248 = MANIFOLD_SOLID_BREP ( 'Corps-Déplacer/Copier1[2]', #244 ) ;
#249 = DIRECTION ( 'NONE',  ( -3.491481338843133355E-15, 1.224646799147353207E-16, -1.000000000000000000 ) ) ;
#250 = AXIS2_PLACEMENT_3D ( 'NONE', #26, #91, #174 ) ;
#251 = LOCAL_TIME ( 11, 34, 0.0000000000000000000, #77 ) ;
#252 = CARTESIAN_POINT ( 'NONE',  ( 1.940169419480710848E-15, 6.805198249055809366E-16, 0.5556866072563819703 ) ) ;
#253 = APPROVAL_DATE_TIME ( #256, #5 ) ;
#254 = CC_DESIGN_PERSON_AND_ORGANIZATION_ASSIGNMENT ( #31, #62, ( #186 ) ) ;
#255 = VERTEX_POINT ( 'NONE', #58 ) ;
#256 = DATE_AND_TIME ( #137, #130 ) ;
#257 = VERTEX_POINT ( 'NONE', #82 ) ;
#258 = COORDINATED_UNIVERSAL_TIME_OFFSET ( 1, 0, .AHEAD. ) ;
#259 = FACE_OUTER_BOUND ( 'NONE', #64, .T. ) ;
#260 = EDGE_CURVE ( 'NONE', #104, #104, #9, .T. ) ;
#261 = EDGE_LOOP ( 'NONE', ( #107 ) ) ;
#262 = APPROVAL_STATUS ( 'not_yet_approved' ) ;
#263 = ORIENTED_EDGE ( 'NONE', *, *, #148, .T. ) ;
ENDSEC;
END-ISO-10303-21;
