ISO-10303-21;
HEADER;
FILE_DESCRIPTION (( 'STEP AP203' ),
    '1' );
FILE_NAME ('62844.step',
    '2021-10-15T09:34:00',
    ( '' ),
    ( '' ),
    'SwSTEP 2.0',
    'SolidWorks 2019',
    '' );
FILE_SCHEMA (( 'CONFIG_CONTROL_DESIGN' ));
ENDSEC;

DATA;
#1 = ORIENTED_EDGE ( 'NONE', *, *, #52, .T. ) ;
#2 = FACE_OUTER_BOUND ( 'NONE', #46, .T. ) ;
#3 = FACE_BOUND ( 'NONE', #204, .T. ) ;
#4 = ADVANCED_FACE ( 'NONE', ( #167 ), #206, .F. ) ;
#5 = LOCAL_TIME ( 11, 34, 0.0000000000000000000, #36 ) ;
#6 = DIRECTION ( 'NONE',  ( 3.491481338843133355E-15, 1.224646799147354045E-15, 1.000000000000000000 ) ) ;
#7 = EDGE_CURVE ( 'NONE', #13, #13, #248, .T. ) ;
#8 = LOCAL_TIME ( 11, 34, 0.0000000000000000000, #186 ) ;
#9 = DATE_AND_TIME ( #14, #30 ) ;
#10 = CARTESIAN_POINT ( 'NONE',  ( 2.164718430082742680E-13, 8.248678804640077261E-33, 62.00000000000000000 ) ) ;
#11 = PERSON_AND_ORGANIZATION ( #169, #64 ) ;
#12 = DIRECTION ( 'NONE',  ( -3.491481338843133355E-15, -1.224646799147354045E-15, -1.000000000000000000 ) ) ;
#13 = VERTEX_POINT ( 'NONE', #259 ) ;
#14 = CALENDAR_DATE ( 2021, 15, 10 ) ;
#15 = PLANE ( 'NONE',  #20 ) ;
#16 = CC_DESIGN_SECURITY_CLASSIFICATION ( #164, ( #94 ) ) ;
#17 = EDGE_LOOP ( 'NONE', ( #187 ) ) ;
#18 = ORIENTED_EDGE ( 'NONE', *, *, #48, .F. ) ;
#19 = EDGE_LOOP ( 'NONE', ( #132 ) ) ;
#20 = AXIS2_PLACEMENT_3D ( 'NONE', #10, #160, #104 ) ;
#21 = CIRCLE ( 'NONE', #177, 1.349999999999986766 ) ;
#22 = DIRECTION ( 'NONE',  ( -3.491481338843133355E-15, 1.224646799147353207E-16, -1.000000000000000000 ) ) ;
#23 = EDGE_CURVE ( 'NONE', #97, #97, #21, .T. ) ;
#24 = AXIS2_PLACEMENT_3D ( 'NONE', #128, #243, #69 ) ;
#25 = DIRECTION ( 'NONE',  ( -3.491481338843133355E-15, 1.224646799147353207E-16, -1.000000000000000000 ) ) ;
#26 = AXIS2_PLACEMENT_3D ( 'NONE', #134, #211, #245 ) ;
#27 = PRODUCT_RELATED_PRODUCT_CATEGORY ( 'detail', '', ( #246 ) ) ;
#28 = FACE_OUTER_BOUND ( 'NONE', #108, .T. ) ;
#29 =( LENGTH_UNIT ( ) NAMED_UNIT ( * ) SI_UNIT ( .MILLI., .METRE. ) );
#30 = LOCAL_TIME ( 11, 34, 0.0000000000000000000, #126 ) ;
#31 =( NAMED_UNIT ( * ) SI_UNIT ( $, .STERADIAN. ) SOLID_ANGLE_UNIT ( ) );
#32 = APPROVAL_ROLE ( '' ) ;
#33 = FACE_OUTER_BOUND ( 'NONE', #19, .T. ) ;
#34 = DATE_AND_TIME ( #159, #5 ) ;
#35 = FACE_OUTER_BOUND ( 'NONE', #17, .T. ) ;
#36 = COORDINATED_UNIVERSAL_TIME_OFFSET ( 1, 0, .AHEAD. ) ;
#37 = CLOSED_SHELL ( 'NONE', ( #216, #55, #240, #184, #193, #4 ) ) ;
#38 = CC_DESIGN_DATE_AND_TIME_ASSIGNMENT ( #85, #197, ( #112 ) ) ;
#39 = CARTESIAN_POINT ( 'NONE',  ( 7.026897043518020102E-14, 2.464703699414209365E-14, 20.12583302491976411 ) ) ;
#40 = SECURITY_CLASSIFICATION_LEVEL ( 'unclassified' ) ;
#41 = CARTESIAN_POINT ( 'NONE',  ( 6.724525889890289864E-14, -1.499999999999970246, 19.25980762113536571 ) ) ;
#42 = EDGE_LOOP ( 'NONE', ( #1 ) ) ;
#43 = ORIENTED_EDGE ( 'NONE', *, *, #52, .F. ) ;
#44 = ORIENTED_EDGE ( 'NONE', *, *, #23, .F. ) ;
#45 = EDGE_LOOP ( 'NONE', ( #202 ) ) ;
#46 = EDGE_LOOP ( 'NONE', ( #66 ) ) ;
#47 = DIRECTION ( 'NONE',  ( 4.279844320860526998E-30, -1.000000000000000000, 1.204669080539450182E-15 ) ) ;
#48 = EDGE_CURVE ( 'NONE', #213, #213, #59, .T. ) ;
#49 = CONICAL_SURFACE ( 'NONE', #233, 1.349999999999999201, 1.082104136236484715 ) ;
#50 = PRODUCT_DEFINITION_SHAPE ( 'NONE', 'NONE',  #112 ) ;
#51 = PERSON_AND_ORGANIZATION_ROLE ( 'design_supplier' ) ;
#52 = EDGE_CURVE ( 'NONE', #103, #103, #86, .T. ) ;
#53 = PERSON_AND_ORGANIZATION_ROLE ( 'classification_officer' ) ;
#54 = CARTESIAN_POINT ( 'NONE',  ( 6.724525889890288602E-14, 2.358646175541723559E-14, 19.25980762113536215 ) ) ;
#55 = ADVANCED_FACE ( 'NONE', ( #2, #170 ), #114, .T. ) ;
#56 = PERSON_AND_ORGANIZATION_ROLE ( 'creator' ) ;
#57 = UNCERTAINTY_MEASURE_WITH_UNIT (LENGTH_MEASURE( 1.000000000000000082E-05 ), #29, 'distance_accuracy_value', 'NONE');
#58 = CONICAL_SURFACE ( 'NONE', #263, 1.999999999999967581, 0.5235987755982953740 ) ;
#59 = CIRCLE ( 'NONE', #205, 1.099999999999996536 ) ;
#60 = DIRECTION ( 'NONE',  ( 4.275831445896958607E-31, 1.000000000000000000, 1.224646799147353207E-16 ) ) ;
#61 = CALENDAR_DATE ( 2021, 15, 10 ) ;
#62 = CONICAL_SURFACE ( 'NONE', #208, 1.074999999999999289, 1.221730476396032161 ) ;
#63 = CARTESIAN_POINT ( 'NONE',  ( 2.164718430082742680E-13, -7.592810154713590230E-15, 62.00000000000000000 ) ) ;
#64 = ORGANIZATION ( 'UNSPECIFIED', 'UNSPECIFIED', '' ) ;
#65 = DIRECTION ( 'NONE',  ( -3.491481338843133355E-15, 1.224646799147353207E-16, -1.000000000000000000 ) ) ;
#66 = ORIENTED_EDGE ( 'NONE', *, *, #135, .F. ) ;
#67 = CARTESIAN_POINT ( 'NONE',  ( 1.366104926897412576E-15, 4.791651060574410722E-16, 0.3912680018361655021 ) ) ;
#68 =( GEOMETRIC_REPRESENTATION_CONTEXT ( 3 ) GLOBAL_UNCERTAINTY_ASSIGNED_CONTEXT ( ( #57 ) ) GLOBAL_UNIT_ASSIGNED_CONTEXT ( ( #29, #192, #31 ) ) REPRESENTATION_CONTEXT ( 'NONE', 'WORKASPACE' ) );
#69 = DIRECTION ( 'NONE',  ( 0.0000000000000000000, 1.000000000000000000, 0.0000000000000000000 ) ) ;
#70 = DIRECTION ( 'NONE',  ( 4.299750573515691905E-30, -1.000000000000000000, 1.210272192541959158E-15 ) ) ;
#71 = CC_DESIGN_PERSON_AND_ORGANIZATION_ASSIGNMENT ( #161, #100, ( #94 ) ) ;
#72 = FACE_OUTER_BOUND ( 'NONE', #242, .T. ) ;
#73 = AXIS2_PLACEMENT_3D ( 'NONE', #110, #241, #188 ) ;
#74 = CARTESIAN_POINT ( 'NONE',  ( 2.150752504727370399E-13, -7.543824282747695224E-15, 61.60000000000000142 ) ) ;
#75 = CARTESIAN_POINT ( 'NONE',  ( 1.876629655438970673E-15, 6.582330757866301914E-16, 0.5374880955430719753 ) ) ;
#76 = DIRECTION ( 'NONE',  ( 0.0000000000000000000, 0.0000000000000000000, 1.000000000000000000 ) ) ;
#77 = ADVANCED_FACE ( 'NONE', ( #87 ), #62, .T. ) ;
#78 = CARTESIAN_POINT ( 'NONE',  ( 1.876629655438965151E-15, 1.349999999999999867, 0.5374880955430703100 ) ) ;
#79 = APPLICATION_PROTOCOL_DEFINITION ( 'international standard', 'config_control_design', 1994, #111 ) ;
#80 = CIRCLE ( 'NONE', #116, 1.349999999999986766 ) ;
#81 = PERSON_AND_ORGANIZATION ( #169, #64 ) ;
#82 = MANIFOLD_SOLID_BREP ( 'Corps-Déplacer/Copier1[2]', #122 ) ;
#83 = CC_DESIGN_DATE_AND_TIME_ASSIGNMENT ( #9, #252, ( #164 ) ) ;
#84 = DIRECTION ( 'NONE',  ( -3.491481338843133355E-15, 1.224646799147353207E-16, -1.000000000000000000 ) ) ;
#85 = DATE_AND_TIME ( #61, #101 ) ;
#86 = CIRCLE ( 'NONE', #227, 1.349999999999974554 ) ;
#87 = FACE_OUTER_BOUND ( 'NONE', #146, .T. ) ;
#88 = CARTESIAN_POINT ( 'NONE',  ( 5.237222008264700664E-14, -1.349999999999968336, 15.00000000000000178 ) ) ;
#89 = EDGE_LOOP ( 'NONE', ( #222 ) ) ;
#90 = APPROVAL ( #237, 'UNSPECIFIED' ) ;
#91 = EDGE_LOOP ( 'NONE', ( #18 ) ) ;
#92 = DIRECTION ( 'NONE',  ( 0.0000000000000000000, 1.000000000000000000, 0.0000000000000000000 ) ) ;
#93 = APPLICATION_CONTEXT ( 'configuration controlled 3d designs of mechanical parts and assemblies' ) ;
#94 = PRODUCT_DEFINITION_FORMATION_WITH_SPECIFIED_SOURCE ( 'ANY', '', #246, .NOT_KNOWN. ) ;
#95 = DIRECTION ( 'NONE',  ( -3.491481338843133355E-15, -1.224646799147354045E-15, -1.000000000000000000 ) ) ;
#96 = COORDINATED_UNIVERSAL_TIME_OFFSET ( 1, 0, .AHEAD. ) ;
#97 = VERTEX_POINT ( 'NONE', #214 ) ;
#98 = DIRECTION ( 'NONE',  ( 1.000000000000000000, 0.0000000000000000000, 0.0000000000000000000 ) ) ;
#99 = DIRECTION ( 'NONE',  ( 3.491481338843133355E-15, 1.224646799147354045E-15, 1.000000000000000000 ) ) ;
#100 = PERSON_AND_ORGANIZATION_ROLE ( 'creator' ) ;
#101 = LOCAL_TIME ( 11, 34, 0.0000000000000000000, #157 ) ;
#102 = CC_DESIGN_PERSON_AND_ORGANIZATION_ASSIGNMENT ( #182, #53, ( #164 ) ) ;
#103 = VERTEX_POINT ( 'NONE', #183 ) ;
#104 = DIRECTION ( 'NONE',  ( 4.275831445896958607E-31, 1.000000000000000000, 1.224646799147353207E-16 ) ) ;
#105 = PERSON_AND_ORGANIZATION_ROLE ( 'design_owner' ) ;
#106 = CARTESIAN_POINT ( 'NONE',  ( 5.237222008264700033E-14, 1.124819836996383900E-32, 15.00000000000000000 ) ) ;
#107 = LOCAL_TIME ( 11, 34, 0.0000000000000000000, #96 ) ;
#108 = EDGE_LOOP ( 'NONE', ( #44 ) ) ;
#109 = EDGE_CURVE ( 'NONE', #162, #162, #178, .T. ) ;
#110 = CARTESIAN_POINT ( 'NONE',  ( 5.237222008264700033E-14, 1.124819836996383900E-32, 15.00000000000000000 ) ) ;
#111 = APPLICATION_CONTEXT ( 'configuration controlled 3d designs of mechanical parts and assemblies' ) ;
#112 = PRODUCT_DEFINITION ( 'UNKNOWN', '', #94, #256 ) ;
#113 = DIRECTION ( 'NONE',  ( 0.0000000000000000000, -1.000000000000000000, 0.0000000000000000000 ) ) ;
#114 = CONICAL_SURFACE ( 'NONE', #24, 1.099999999999996536, 0.7853981633974516097 ) ;
#115 = DIRECTION ( 'NONE',  ( 0.0000000000000000000, 1.000000000000000000, 0.0000000000000000000 ) ) ;
#116 = AXIS2_PLACEMENT_3D ( 'NONE', #123, #84, #138 ) ;
#117 = CC_DESIGN_APPROVAL ( #129, ( #164 ) ) ;
#118 = DIRECTION ( 'NONE',  ( -3.994521366136528439E-30, 1.000000000000000000, -1.284980352575425321E-15 ) ) ;
#119 = DATE_AND_TIME ( #139, #107 ) ;
#120 = ADVANCED_FACE ( 'NONE', ( #3, #176 ), #49, .T. ) ;
#121 = APPROVAL_STATUS ( 'not_yet_approved' ) ;
#122 = CLOSED_SHELL ( 'NONE', ( #261, #77, #120, #173 ) ) ;
#123 = CARTESIAN_POINT ( 'NONE',  ( 5.237222008264700664E-14, 1.836970198721031324E-14, 15.00000000000000178 ) ) ;
#124 = APPLICATION_PROTOCOL_DEFINITION ( 'international standard', 'config_control_design', 1994, #93 ) ;
#125 = PLANE ( 'NONE',  #143 ) ;
#126 = COORDINATED_UNIVERSAL_TIME_OFFSET ( 1, 0, .AHEAD. ) ;
#127 = DIRECTION ( 'NONE',  ( -3.491481338843133355E-15, -1.224646799147354045E-15, -1.000000000000000000 ) ) ;
#128 = CARTESIAN_POINT ( 'NONE',  ( 2.164718430082742680E-13, -7.592810154713590230E-15, 62.00000000000000000 ) ) ;
#129 = APPROVAL ( #121, 'UNSPECIFIED' ) ;
#130 = ORIENTED_EDGE ( 'NONE', *, *, #48, .T. ) ;
#131 = CC_DESIGN_APPROVAL ( #90, ( #112 ) ) ;
#132 = ORIENTED_EDGE ( 'NONE', *, *, #135, .T. ) ;
#133 = EDGE_LOOP ( 'NONE', ( #225 ) ) ;
#134 = CARTESIAN_POINT ( 'NONE',  ( -3.491481338843130200E-15, -1.224646799147353059E-15, -0.9999999999999991118 ) ) ;
#135 = EDGE_CURVE ( 'NONE', #236, #236, #230, .T. ) ;
#136 = CARTESIAN_POINT ( 'NONE',  ( 1.876629655438970673E-15, 6.582330757866301914E-16, 0.5374880955430719753 ) ) ;
#137 = APPROVAL_PERSON_ORGANIZATION ( #81, #180, #32 ) ;
#138 = DIRECTION ( 'NONE',  ( 0.0000000000000000000, -1.000000000000000000, 0.0000000000000000000 ) ) ;
#139 = CALENDAR_DATE ( 2021, 15, 10 ) ;
#140 = PERSON_AND_ORGANIZATION ( #169, #64 ) ;
#141 = FACE_OUTER_BOUND ( 'NONE', #91, .T. ) ;
#142 = APPROVAL_DATE_TIME ( #217, #180 ) ;
#143 = AXIS2_PLACEMENT_3D ( 'NONE', #106, #257, #196 ) ;
#144 = AXIS2_PLACEMENT_3D ( 'NONE', #67, #260, #151 ) ;
#145 = APPROVAL_STATUS ( 'not_yet_approved' ) ;
#146 = EDGE_LOOP ( 'NONE', ( #150 ) ) ;
#147 = AXIS2_PLACEMENT_3D ( 'NONE', #194, #76, #98 ) ;
#148 = VERTEX_POINT ( 'NONE', #88 ) ;
#149 = CC_DESIGN_PERSON_AND_ORGANIZATION_ASSIGNMENT ( #11, #56, ( #112 ) ) ;
#150 = ORIENTED_EDGE ( 'NONE', *, *, #7, .T. ) ;
#151 = DIRECTION ( 'NONE',  ( -4.299750573515691905E-30, 1.000000000000000000, -1.210272192541959158E-15 ) ) ;
#152 = AXIS2_PLACEMENT_3D ( 'NONE', #163, #185, #60 ) ;
#153 = CARTESIAN_POINT ( 'NONE',  ( 6.633814543801950851E-14, 2.326828918379972548E-14, 18.99999999999999645 ) ) ;
#154 = CARTESIAN_POINT ( 'NONE',  ( 1.366104926897412576E-15, 4.791651060574410722E-16, 0.3912680018361655021 ) ) ;
#155 = APPROVAL_PERSON_ORGANIZATION ( #140, #129, #179 ) ;
#156 = FACE_OUTER_BOUND ( 'NONE', #42, .T. ) ;
#157 = COORDINATED_UNIVERSAL_TIME_OFFSET ( 1, 0, .AHEAD. ) ;
#158 = FACE_OUTER_BOUND ( 'NONE', #262, .T. ) ;
#159 = CALENDAR_DATE ( 2021, 15, 10 ) ;
#160 = DIRECTION ( 'NONE',  ( -3.491481338843133355E-15, 1.224646799147353207E-16, -1.000000000000000000 ) ) ;
#161 = PERSON_AND_ORGANIZATION ( #169, #64 ) ;
#162 = VERTEX_POINT ( 'NONE', #78 ) ;
#163 = CARTESIAN_POINT ( 'NONE',  ( 0.0000000000000000000, 0.0000000000000000000, 0.0000000000000000000 ) ) ;
#164 = SECURITY_CLASSIFICATION ( '', '', #40 ) ;
#165 = EDGE_LOOP ( 'NONE', ( #207 ) ) ;
#166 = EDGE_LOOP ( 'NONE', ( #130 ) ) ;
#167 = FACE_OUTER_BOUND ( 'NONE', #133, .T. ) ;
#168 = VERTEX_POINT ( 'NONE', #41 ) ;
#169 = PERSON ( 'UNSPECIFIED', 'UNSPECIFIED', 'UNSPECIFIED', ('UNSPECIFIED'), ('UNSPECIFIED'), ('UNSPECIFIED') ) ;
#170 = FACE_BOUND ( 'NONE', #166, .T. ) ;
#171 = CC_DESIGN_PERSON_AND_ORGANIZATION_ASSIGNMENT ( #232, #51, ( #94 ) ) ;
#172 = DIRECTION ( 'NONE',  ( 3.491481338843133355E-15, 1.224646799147354045E-15, 1.000000000000000000 ) ) ;
#173 = ADVANCED_FACE ( 'NONE', ( #191, #72 ), #229, .T. ) ;
#174 = DIRECTION ( 'NONE',  ( -4.279844320860526998E-30, 1.000000000000000000, -1.204669080539450182E-15 ) ) ;
#175 = AXIS2_PLACEMENT_3D ( 'NONE', #181, #12, #118 ) ;
#176 = FACE_OUTER_BOUND ( 'NONE', #89, .T. ) ;
#177 = AXIS2_PLACEMENT_3D ( 'NONE', #226, #22, #113 ) ;
#178 = CIRCLE ( 'NONE', #200, 1.349999999999999201 ) ;
#179 = APPROVAL_ROLE ( '' ) ;
#180 = APPROVAL ( #145, 'UNSPECIFIED' ) ;
#181 = CARTESIAN_POINT ( 'NONE',  ( -3.491481338843130200E-15, -1.224646799147353059E-15, -0.9999999999999991118 ) ) ;
#182 = PERSON_AND_ORGANIZATION ( #169, #64 ) ;
#183 = CARTESIAN_POINT ( 'NONE',  ( 6.633814543801950851E-14, 1.349999999999997646, 18.99999999999999645 ) ) ;
#184 = ADVANCED_FACE ( 'NONE', ( #156, #28 ), #231, .T. ) ;
#185 = DIRECTION ( 'NONE',  ( -3.491481338843133355E-15, 1.224646799147353207E-16, -1.000000000000000000 ) ) ;
#186 = COORDINATED_UNIVERSAL_TIME_OFFSET ( 1, 0, .AHEAD. ) ;
#187 = ORIENTED_EDGE ( 'NONE', *, *, #209, .T. ) ;
#188 = DIRECTION ( 'NONE',  ( -4.275831445896958607E-31, -1.000000000000000000, -1.224646799147353207E-16 ) ) ;
#189 = ORIENTED_EDGE ( 'NONE', *, *, #109, .F. ) ;
#190 = DIRECTION ( 'NONE',  ( 0.0000000000000000000, 1.000000000000000000, 0.0000000000000000000 ) ) ;
#191 = FACE_OUTER_BOUND ( 'NONE', #45, .T. ) ;
#192 =( NAMED_UNIT ( * ) PLANE_ANGLE_UNIT ( ) SI_UNIT ( $, .RADIAN. ) );
#193 = ADVANCED_FACE ( 'NONE', ( #239, #158 ), #58, .T. ) ;
#194 = CARTESIAN_POINT ( 'NONE',  ( 0.0000000000000000000, 0.0000000000000000000, 0.0000000000000000000 ) ) ;
#195 = SHAPE_DEFINITION_REPRESENTATION ( #50, #223 ) ;
#196 = DIRECTION ( 'NONE',  ( -4.275831445896958607E-31, -1.000000000000000000, -1.224646799147353207E-16 ) ) ;
#197 = DATE_TIME_ROLE ( 'creation_date' ) ;
#198 = CYLINDRICAL_SURFACE ( 'NONE', #152, 1.499999999999994005 ) ;
#199 = MECHANICAL_CONTEXT ( 'NONE', #93, 'mechanical' ) ;
#200 = AXIS2_PLACEMENT_3D ( 'NONE', #136, #95, #174 ) ;
#201 = AXIS2_PLACEMENT_3D ( 'NONE', #54, #234, #254 ) ;
#202 = ORIENTED_EDGE ( 'NONE', *, *, #221, .T. ) ;
#203 = ORIENTED_EDGE ( 'NONE', *, *, #7, .F. ) ;
#204 = EDGE_LOOP ( 'NONE', ( #203 ) ) ;
#205 = AXIS2_PLACEMENT_3D ( 'NONE', #63, #65, #92 ) ;
#206 = PLANE ( 'NONE',  #73 ) ;
#207 = ORIENTED_EDGE ( 'NONE', *, *, #221, .F. ) ;
#208 = AXIS2_PLACEMENT_3D ( 'NONE', #154, #6, #70 ) ;
#209 = EDGE_CURVE ( 'NONE', #168, #168, #244, .T. ) ;
#210 = APPROVAL_PERSON_ORGANIZATION ( #249, #90, #238 ) ;
#211 = DIRECTION ( 'NONE',  ( -3.491481338843133355E-15, -1.224646799147354045E-15, -1.000000000000000000 ) ) ;
#212 = AXIS2_PLACEMENT_3D ( 'NONE', #74, #25, #115 ) ;
#213 = VERTEX_POINT ( 'NONE', #250 ) ;
#214 = CARTESIAN_POINT ( 'NONE',  ( 5.237222008264700664E-14, -1.349999999999968336, 15.00000000000000178 ) ) ;
#215 = FACE_OUTER_BOUND ( 'NONE', #165, .T. ) ;
#216 = ADVANCED_FACE ( 'NONE', ( #35, #33 ), #198, .T. ) ;
#217 = DATE_AND_TIME ( #258, #8 ) ;
#218 = CARTESIAN_POINT ( 'NONE',  ( 2.150752504727370399E-13, 1.499999999999989120, 61.60000000000000142 ) ) ;
#219 = APPROVAL_DATE_TIME ( #34, #129 ) ;
#220 = APPROVAL_DATE_TIME ( #119, #90 ) ;
#221 = EDGE_CURVE ( 'NONE', #148, #148, #80, .T. ) ;
#222 = ORIENTED_EDGE ( 'NONE', *, *, #109, .T. ) ;
#223 = ADVANCED_BREP_SHAPE_REPRESENTATION ( '62844', ( #253, #82, #147 ), #68 ) ;
#224 = EDGE_LOOP ( 'NONE', ( #43 ) ) ;
#225 = ORIENTED_EDGE ( 'NONE', *, *, #23, .T. ) ;
#226 = CARTESIAN_POINT ( 'NONE',  ( 5.237222008264700664E-14, 1.836970198721031324E-14, 15.00000000000000178 ) ) ;
#227 = AXIS2_PLACEMENT_3D ( 'NONE', #153, #127, #190 ) ;
#228 = ORIENTED_EDGE ( 'NONE', *, *, #209, .F. ) ;
#229 = CYLINDRICAL_SURFACE ( 'NONE', #26, 1.349999999999986766 ) ;
#230 = CIRCLE ( 'NONE', #212, 1.499999999999996669 ) ;
#231 = CYLINDRICAL_SURFACE ( 'NONE', #175, 1.349999999999986766 ) ;
#232 = PERSON_AND_ORGANIZATION ( #169, #64 ) ;
#233 = AXIS2_PLACEMENT_3D ( 'NONE', #75, #172, #47 ) ;
#234 = DIRECTION ( 'NONE',  ( 3.491481338843133355E-15, 1.224646799147354045E-15, 1.000000000000000000 ) ) ;
#235 = CC_DESIGN_PERSON_AND_ORGANIZATION_ASSIGNMENT ( #255, #105, ( #246 ) ) ;
#236 = VERTEX_POINT ( 'NONE', #218 ) ;
#237 = APPROVAL_STATUS ( 'not_yet_approved' ) ;
#238 = APPROVAL_ROLE ( '' ) ;
#239 = FACE_BOUND ( 'NONE', #224, .T. ) ;
#240 = ADVANCED_FACE ( 'NONE', ( #141 ), #15, .F. ) ;
#241 = DIRECTION ( 'NONE',  ( 3.491481338843133355E-15, -1.224646799147353207E-16, 1.000000000000000000 ) ) ;
#242 = EDGE_LOOP ( 'NONE', ( #189 ) ) ;
#243 = DIRECTION ( 'NONE',  ( -3.491481338843133355E-15, 1.224646799147353207E-16, -1.000000000000000000 ) ) ;
#244 = CIRCLE ( 'NONE', #201, 1.499999999999994005 ) ;
#245 = DIRECTION ( 'NONE',  ( -3.994521366136528439E-30, 1.000000000000000000, -1.284980352575425321E-15 ) ) ;
#246 = PRODUCT ( '62844', '62844', '', ( #199 ) ) ;
#247 = CC_DESIGN_APPROVAL ( #180, ( #94 ) ) ;
#248 = CIRCLE ( 'NONE', #144, 1.074999999999999289 ) ;
#249 = PERSON_AND_ORGANIZATION ( #169, #64 ) ;
#250 = CARTESIAN_POINT ( 'NONE',  ( 2.164718430082742680E-13, 1.099999999999988987, 62.00000000000000000 ) ) ;
#251 = DIRECTION ( 'NONE',  ( 6.162975822039254923E-30, -1.000000000000000000, 1.734723475976835296E-15 ) ) ;
#252 = DATE_TIME_ROLE ( 'classification_date' ) ;
#253 = MANIFOLD_SOLID_BREP ( 'Corps-Déplacer/Copier1[1]', #37 ) ;
#254 = DIRECTION ( 'NONE',  ( 8.217301096052239470E-30, -1.000000000000000000, 2.312964634635752127E-15 ) ) ;
#255 = PERSON_AND_ORGANIZATION ( #169, #64 ) ;
#256 = DESIGN_CONTEXT ( 'detailed design', #111, 'design' ) ;
#257 = DIRECTION ( 'NONE',  ( 3.491481338843133355E-15, -1.224646799147353207E-16, 1.000000000000000000 ) ) ;
#258 = CALENDAR_DATE ( 2021, 15, 10 ) ;
#259 = CARTESIAN_POINT ( 'NONE',  ( 1.366104926897408040E-15, 1.074999999999999734, 0.3912680018361642253 ) ) ;
#260 = DIRECTION ( 'NONE',  ( -3.491481338843133355E-15, -1.224646799147354045E-15, -1.000000000000000000 ) ) ;
#261 = ADVANCED_FACE ( 'NONE', ( #215 ), #125, .T. ) ;
#262 = EDGE_LOOP ( 'NONE', ( #228 ) ) ;
#263 = AXIS2_PLACEMENT_3D ( 'NONE', #39, #99, #251 ) ;
ENDSEC;
END-ISO-10303-21;
