ISO-10303-21;
HEADER;
FILE_DESCRIPTION (( 'STEP AP203' ),
    '1' );
FILE_NAME ('62843.step',
    '2021-10-15T09:33:59',
    ( '' ),
    ( '' ),
    'SwSTEP 2.0',
    'SolidWorks 2019',
    '' );
FILE_SCHEMA (( 'CONFIG_CONTROL_DESIGN' ));
ENDSEC;

DATA;
#1 = CARTESIAN_POINT ( 'NONE',  ( 5.237222008264700664E-14, -1.299999999999968514, 15.00000000000000178 ) ) ;
#2 =( NAMED_UNIT ( * ) SI_UNIT ( $, .STERADIAN. ) SOLID_ANGLE_UNIT ( ) );
#3 = PERSON_AND_ORGANIZATION ( #134, #19 ) ;
#4 = ORIENTED_EDGE ( 'NONE', *, *, #89, .F. ) ;
#5 = ADVANCED_FACE ( 'NONE', ( #52, #139 ), #175, .T. ) ;
#6 = CALENDAR_DATE ( 2021, 15, 10 ) ;
#7 = EDGE_LOOP ( 'NONE', ( #46 ) ) ;
#8 = CC_DESIGN_APPROVAL ( #9, ( #206 ) ) ;
#9 = APPROVAL ( #226, 'UNSPECIFIED' ) ;
#10 = APPROVAL_STATUS ( 'not_yet_approved' ) ;
#11 = ORIENTED_EDGE ( 'NONE', *, *, #214, .T. ) ;
#12 = CALENDAR_DATE ( 2021, 15, 10 ) ;
#13 = DIRECTION ( 'NONE',  ( -3.491481338843133355E-15, 1.224646799147353207E-16, -1.000000000000000000 ) ) ;
#14 = AXIS2_PLACEMENT_3D ( 'NONE', #262, #106, #25 ) ;
#15 = PLANE ( 'NONE',  #220 ) ;
#16 = CALENDAR_DATE ( 2021, 15, 10 ) ;
#17 = DIRECTION ( 'NONE',  ( 0.0000000000000000000, 1.000000000000000000, 0.0000000000000000000 ) ) ;
#18 = DIRECTION ( 'NONE',  ( 3.491481338843133355E-15, -1.224646799147353207E-16, 1.000000000000000000 ) ) ;
#19 = ORGANIZATION ( 'UNSPECIFIED', 'UNSPECIFIED', '' ) ;
#20 = ADVANCED_FACE ( 'NONE', ( #33 ), #153, .T. ) ;
#21 = DIRECTION ( 'NONE',  ( -3.491481338843133355E-15, 1.224646799147353207E-16, -1.000000000000000000 ) ) ;
#22 = PLANE ( 'NONE',  #14 ) ;
#23 = CYLINDRICAL_SURFACE ( 'NONE', #82, 1.299999999999986944 ) ;
#24 = LOCAL_TIME ( 11, 33, 59.00000000000000000, #68 ) ;
#25 = DIRECTION ( 'NONE',  ( 4.275831445896958607E-31, 1.000000000000000000, 1.224646799147353207E-16 ) ) ;
#26 = PERSON_AND_ORGANIZATION_ROLE ( 'creator' ) ;
#27 = CC_DESIGN_PERSON_AND_ORGANIZATION_ASSIGNMENT ( #253, #237, ( #206 ) ) ;
#28 = EDGE_LOOP ( 'NONE', ( #148 ) ) ;
#29 = APPROVAL_STATUS ( 'not_yet_approved' ) ;
#30 = EDGE_LOOP ( 'NONE', ( #195 ) ) ;
#31 = PERSON_AND_ORGANIZATION ( #134, #19 ) ;
#32 = CARTESIAN_POINT ( 'NONE',  ( 1.798448434459776369E-15, 6.308107948881372989E-16, 0.5150961038948796977 ) ) ;
#33 = FACE_OUTER_BOUND ( 'NONE', #30, .T. ) ;
#34 = DIRECTION ( 'NONE',  ( 3.491481338843133355E-15, 1.224646799147354045E-15, 1.000000000000000000 ) ) ;
#35 = DATE_AND_TIME ( #16, #258 ) ;
#36 = DIRECTION ( 'NONE',  ( -4.275831445896958607E-31, -1.000000000000000000, -1.224646799147353207E-16 ) ) ;
#37 = CC_DESIGN_PERSON_AND_ORGANIZATION_ASSIGNMENT ( #229, #200, ( #206 ) ) ;
#38 = DIRECTION ( 'NONE',  ( -4.275831445896958607E-31, -1.000000000000000000, -1.224646799147353207E-16 ) ) ;
#39 = AXIS2_PLACEMENT_3D ( 'NONE', #183, #234, #178 ) ;
#40 = VERTEX_POINT ( 'NONE', #88 ) ;
#41 = AXIS2_PLACEMENT_3D ( 'NONE', #181, #255, #236 ) ;
#42 = DIRECTION ( 'NONE',  ( 1.000000000000000000, 0.0000000000000000000, 0.0000000000000000000 ) ) ;
#43 = APPLICATION_CONTEXT ( 'configuration controlled 3d designs of mechanical parts and assemblies' ) ;
#44 = ADVANCED_FACE ( 'NONE', ( #162, #251 ), #120, .T. ) ;
#45 = APPROVAL_DATE_TIME ( #71, #232 ) ;
#46 = ORIENTED_EDGE ( 'NONE', *, *, #230, .F. ) ;
#47 = ORIENTED_EDGE ( 'NONE', *, *, #117, .F. ) ;
#48 = AXIS2_PLACEMENT_3D ( 'NONE', #167, #105, #124 ) ;
#49 = EDGE_LOOP ( 'NONE', ( #4 ) ) ;
#50 = ORIENTED_EDGE ( 'NONE', *, *, #126, .T. ) ;
#51 = CIRCLE ( 'NONE', #245, 1.299999999999974509 ) ;
#52 = FACE_BOUND ( 'NONE', #159, .T. ) ;
#53 = ORIENTED_EDGE ( 'NONE', *, *, #163, .T. ) ;
#54 =( GEOMETRIC_REPRESENTATION_CONTEXT ( 3 ) GLOBAL_UNCERTAINTY_ASSIGNED_CONTEXT ( ( #101 ) ) GLOBAL_UNIT_ASSIGNED_CONTEXT ( ( #244, #127, #2 ) ) REPRESENTATION_CONTEXT ( 'NONE', 'WORKASPACE' ) );
#55 = EDGE_LOOP ( 'NONE', ( #154 ) ) ;
#56 = DIRECTION ( 'NONE',  ( 3.491481338843133355E-15, 1.224646799147354045E-15, 1.000000000000000000 ) ) ;
#57 = LOCAL_TIME ( 11, 33, 59.00000000000000000, #78 ) ;
#58 = MECHANICAL_CONTEXT ( 'NONE', #43, 'mechanical' ) ;
#59 = CLOSED_SHELL ( 'NONE', ( #149, #247, #188, #198, #107, #76 ) ) ;
#60 = CARTESIAN_POINT ( 'NONE',  ( 1.334335044876538544E-15, 1.049999999999999822, 0.3821687459795092834 ) ) ;
#61 = VERTEX_POINT ( 'NONE', #84 ) ;
#62 = VERTEX_POINT ( 'NONE', #1 ) ;
#63 = AXIS2_PLACEMENT_3D ( 'NONE', #254, #259, #136 ) ;
#64 = MANIFOLD_SOLID_BREP ( 'Corps-Déplacer/Copier1[2]', #249 ) ;
#65 = COORDINATED_UNIVERSAL_TIME_OFFSET ( 1, 0, .AHEAD. ) ;
#66 = EDGE_LOOP ( 'NONE', ( #50 ) ) ;
#67 = MANIFOLD_SOLID_BREP ( 'Corps-Déplacer/Copier1[1]', #59 ) ;
#68 = COORDINATED_UNIVERSAL_TIME_OFFSET ( 1, 0, .AHEAD. ) ;
#69 = EDGE_LOOP ( 'NONE', ( #53 ) ) ;
#70 = LOCAL_TIME ( 11, 33, 59.00000000000000000, #65 ) ;
#71 = DATE_AND_TIME ( #152, #70 ) ;
#72 = CALENDAR_DATE ( 2021, 15, 10 ) ;
#73 = EDGE_LOOP ( 'NONE', ( #231 ) ) ;
#74 = PERSON_AND_ORGANIZATION_ROLE ( 'classification_officer' ) ;
#75 = DIRECTION ( 'NONE',  ( 0.0000000000000000000, -1.000000000000000000, 0.0000000000000000000 ) ) ;
#76 = ADVANCED_FACE ( 'NONE', ( #79 ), #15, .F. ) ;
#77 = CARTESIAN_POINT ( 'NONE',  ( 7.057134158880791359E-14, 2.475309451801457283E-14, 20.21243556529819685 ) ) ;
#78 = COORDINATED_UNIVERSAL_TIME_OFFSET ( 1, 0, .AHEAD. ) ;
#79 = FACE_OUTER_BOUND ( 'NONE', #66, .T. ) ;
#80 = EDGE_CURVE ( 'NONE', #208, #208, #209, .T. ) ;
#81 = CARTESIAN_POINT ( 'NONE',  ( 5.237222008264700033E-14, 1.124819836996383900E-32, 15.00000000000000000 ) ) ;
#82 = AXIS2_PLACEMENT_3D ( 'NONE', #204, #189, #165 ) ;
#83 = FACE_OUTER_BOUND ( 'NONE', #73, .T. ) ;
#84 = CARTESIAN_POINT ( 'NONE',  ( 5.237222008264700664E-14, -1.299999999999968514, 15.00000000000000178 ) ) ;
#85 = CARTESIAN_POINT ( 'NONE',  ( 2.164718430082742680E-13, -7.592810154713590230E-15, 62.00000000000000000 ) ) ;
#86 = CONICAL_SURFACE ( 'NONE', #228, 1.099999999999996536, 0.7853981633974516097 ) ;
#87 = CARTESIAN_POINT ( 'NONE',  ( 2.150752504727370399E-13, -7.543824282747695224E-15, 61.60000000000000142 ) ) ;
#88 = CARTESIAN_POINT ( 'NONE',  ( 6.633814543801950851E-14, 1.299999999999997824, 18.99999999999999645 ) ) ;
#89 = EDGE_CURVE ( 'NONE', #144, #144, #252, .T. ) ;
#90 = AXIS2_PLACEMENT_3D ( 'NONE', #32, #215, #218 ) ;
#91 = LOCAL_TIME ( 11, 33, 59.00000000000000000, #210 ) ;
#92 = PERSON_AND_ORGANIZATION ( #134, #19 ) ;
#93 = APPROVAL_ROLE ( '' ) ;
#94 = EDGE_CURVE ( 'NONE', #125, #125, #168, .T. ) ;
#95 = SHAPE_DEFINITION_REPRESENTATION ( #151, #147 ) ;
#96 = DIRECTION ( 'NONE',  ( -4.218703687705376543E-30, 1.000000000000000000, -1.239088197126291458E-15 ) ) ;
#97 = DATE_AND_TIME ( #12, #57 ) ;
#98 = DIRECTION ( 'NONE',  ( 4.275831445896958607E-31, 1.000000000000000000, 1.224646799147353207E-16 ) ) ;
#99 = PERSON_AND_ORGANIZATION ( #134, #19 ) ;
#100 = DIRECTION ( 'NONE',  ( -3.491481338843133355E-15, 1.224646799147353207E-16, -1.000000000000000000 ) ) ;
#101 = UNCERTAINTY_MEASURE_WITH_UNIT (LENGTH_MEASURE( 1.000000000000000082E-05 ), #244, 'distance_accuracy_value', 'NONE');
#102 = AXIS2_PLACEMENT_3D ( 'NONE', #180, #123, #96 ) ;
#103 = CARTESIAN_POINT ( 'NONE',  ( 2.150752504727370399E-13, 1.499999999999989120, 61.60000000000000142 ) ) ;
#104 = DIRECTION ( 'NONE',  ( 0.0000000000000000000, 1.000000000000000000, 0.0000000000000000000 ) ) ;
#105 = DIRECTION ( 'NONE',  ( 3.491481338843133355E-15, 1.224646799147354045E-15, 1.000000000000000000 ) ) ;
#106 = DIRECTION ( 'NONE',  ( -3.491481338843133355E-15, 1.224646799147353207E-16, -1.000000000000000000 ) ) ;
#107 = ADVANCED_FACE ( 'NONE', ( #238, #182 ), #242, .T. ) ;
#108 = FACE_BOUND ( 'NONE', #172, .T. ) ;
#109 = CC_DESIGN_SECURITY_CLASSIFICATION ( #221, ( #206 ) ) ;
#110 = DATE_AND_TIME ( #72, #24 ) ;
#111 = AXIS2_PLACEMENT_3D ( 'NONE', #77, #56, #201 ) ;
#112 = EDGE_LOOP ( 'NONE', ( #47 ) ) ;
#113 = PRODUCT_DEFINITION ( 'UNKNOWN', '', #206, #256 ) ;
#114 = ORIENTED_EDGE ( 'NONE', *, *, #117, .T. ) ;
#115 = APPROVAL_PERSON_ORGANIZATION ( #3, #232, #169 ) ;
#116 = ORIENTED_EDGE ( 'NONE', *, *, #94, .F. ) ;
#117 = EDGE_CURVE ( 'NONE', #40, #40, #51, .T. ) ;
#118 = SECURITY_CLASSIFICATION_LEVEL ( 'unclassified' ) ;
#119 = FACE_OUTER_BOUND ( 'NONE', #225, .T. ) ;
#120 = CYLINDRICAL_SURFACE ( 'NONE', #39, 1.299999999999986944 ) ;
#121 = DIRECTION ( 'NONE',  ( 4.218703687705376543E-30, -1.000000000000000000, 1.239088197126291458E-15 ) ) ;
#122 = CARTESIAN_POINT ( 'NONE',  ( 5.237222008264700033E-14, 1.124819836996383900E-32, 15.00000000000000000 ) ) ;
#123 = DIRECTION ( 'NONE',  ( -3.491481338843133355E-15, -1.224646799147354045E-15, -1.000000000000000000 ) ) ;
#124 = DIRECTION ( 'NONE',  ( 8.217301096052239470E-30, -1.000000000000000000, 2.312964634635752127E-15 ) ) ;
#125 = VERTEX_POINT ( 'NONE', #143 ) ;
#126 = EDGE_CURVE ( 'NONE', #62, #62, #142, .T. ) ;
#127 =( NAMED_UNIT ( * ) PLANE_ANGLE_UNIT ( ) SI_UNIT ( $, .RADIAN. ) );
#128 = FACE_OUTER_BOUND ( 'NONE', #28, .T. ) ;
#129 = APPROVAL_ROLE ( '' ) ;
#130 = CIRCLE ( 'NONE', #216, 1.299999999999986944 ) ;
#131 = PRODUCT_RELATED_PRODUCT_CATEGORY ( 'detail', '', ( #171 ) ) ;
#132 = ORIENTED_EDGE ( 'NONE', *, *, #163, .F. ) ;
#133 = APPLICATION_PROTOCOL_DEFINITION ( 'international standard', 'config_control_design', 1994, #190 ) ;
#134 = PERSON ( 'UNSPECIFIED', 'UNSPECIFIED', 'UNSPECIFIED', ('UNSPECIFIED'), ('UNSPECIFIED'), ('UNSPECIFIED') ) ;
#135 = ORIENTED_EDGE ( 'NONE', *, *, #80, .F. ) ;
#136 = DIRECTION ( 'NONE',  ( -4.148156803295587124E-30, 1.000000000000000000, -1.251002506714044230E-15 ) ) ;
#137 = CC_DESIGN_APPROVAL ( #232, ( #113 ) ) ;
#138 = PLANE ( 'NONE',  #179 ) ;
#139 = FACE_OUTER_BOUND ( 'NONE', #196, .T. ) ;
#140 = CC_DESIGN_PERSON_AND_ORGANIZATION_ASSIGNMENT ( #92, #26, ( #113 ) ) ;
#141 = DIRECTION ( 'NONE',  ( 0.0000000000000000000, -1.000000000000000000, 0.0000000000000000000 ) ) ;
#142 = CIRCLE ( 'NONE', #223, 1.299999999999986944 ) ;
#143 = CARTESIAN_POINT ( 'NONE',  ( 1.798448434459770847E-15, 1.300000000000000044, 0.5150961038948781434 ) ) ;
#144 = VERTEX_POINT ( 'NONE', #185 ) ;
#145 = DIRECTION ( 'NONE',  ( 0.0000000000000000000, 1.000000000000000000, 0.0000000000000000000 ) ) ;
#146 = AXIS2_PLACEMENT_3D ( 'NONE', #197, #13, #98 ) ;
#147 = ADVANCED_BREP_SHAPE_REPRESENTATION ( '62843', ( #67, #64, #184 ), #54 ) ;
#148 = ORIENTED_EDGE ( 'NONE', *, *, #214, .F. ) ;
#149 = ADVANCED_FACE ( 'NONE', ( #83, #119 ), #155, .T. ) ;
#150 = PERSON_AND_ORGANIZATION ( #134, #19 ) ;
#151 = PRODUCT_DEFINITION_SHAPE ( 'NONE', 'NONE',  #113 ) ;
#152 = CALENDAR_DATE ( 2021, 15, 10 ) ;
#153 = CONICAL_SURFACE ( 'NONE', #212, 1.049999999999999378, 1.221730476396032161 ) ;
#154 = ORIENTED_EDGE ( 'NONE', *, *, #126, .F. ) ;
#155 = CYLINDRICAL_SURFACE ( 'NONE', #146, 1.499999999999994005 ) ;
#156 = DIRECTION ( 'NONE',  ( -3.491481338843133355E-15, -1.224646799147354045E-15, -1.000000000000000000 ) ) ;
#157 = ADVANCED_FACE ( 'NONE', ( #160 ), #138, .T. ) ;
#158 = COORDINATED_UNIVERSAL_TIME_OFFSET ( 1, 0, .AHEAD. ) ;
#159 = EDGE_LOOP ( 'NONE', ( #135 ) ) ;
#160 = FACE_OUTER_BOUND ( 'NONE', #211, .T. ) ;
#161 = AXIS2_PLACEMENT_3D ( 'NONE', #87, #243, #104 ) ;
#162 = FACE_OUTER_BOUND ( 'NONE', #69, .T. ) ;
#163 = EDGE_CURVE ( 'NONE', #61, #61, #130, .T. ) ;
#164 = CARTESIAN_POINT ( 'NONE',  ( 6.754763005253063646E-14, -1.499999999999970246, 19.34641016151380555 ) ) ;
#165 = DIRECTION ( 'NONE',  ( -4.148156803295626360E-30, 1.000000000000000000, -1.167602339599785672E-15 ) ) ;
#166 = CIRCLE ( 'NONE', #48, 1.499999999999994005 ) ;
#167 = CARTESIAN_POINT ( 'NONE',  ( 6.754763005253062383E-14, 2.369251927928972108E-14, 19.34641016151380200 ) ) ;
#168 = CIRCLE ( 'NONE', #63, 1.299999999999999378 ) ;
#169 = APPROVAL_ROLE ( '' ) ;
#170 = CC_DESIGN_PERSON_AND_ORGANIZATION_ASSIGNMENT ( #31, #74, ( #221 ) ) ;
#171 = PRODUCT ( '62843', '62843', '', ( #58 ) ) ;
#172 = EDGE_LOOP ( 'NONE', ( #250 ) ) ;
#173 = DATE_AND_TIME ( #6, #91 ) ;
#174 = PERSON_AND_ORGANIZATION_ROLE ( 'design_owner' ) ;
#175 = CONICAL_SURFACE ( 'NONE', #90, 1.299999999999999378, 1.082104136236486047 ) ;
#176 = ORIENTED_EDGE ( 'NONE', *, *, #94, .T. ) ;
#177 = APPROVAL_PERSON_ORGANIZATION ( #99, #240, #93 ) ;
#178 = DIRECTION ( 'NONE',  ( -4.148156803295626360E-30, 1.000000000000000000, -1.167602339599785672E-15 ) ) ;
#179 = AXIS2_PLACEMENT_3D ( 'NONE', #122, #18, #38 ) ;
#180 = CARTESIAN_POINT ( 'NONE',  ( 1.334335044876542883E-15, 4.680217314979659461E-16, 0.3821687459795106157 ) ) ;
#181 = CARTESIAN_POINT ( 'NONE',  ( 2.164718430082742680E-13, -7.592810154713590230E-15, 62.00000000000000000 ) ) ;
#182 = FACE_OUTER_BOUND ( 'NONE', #7, .T. ) ;
#183 = CARTESIAN_POINT ( 'NONE',  ( -3.491481338843130200E-15, -1.224646799147353059E-15, -0.9999999999999991118 ) ) ;
#184 = AXIS2_PLACEMENT_3D ( 'NONE', #224, #186, #42 ) ;
#185 = CARTESIAN_POINT ( 'NONE',  ( 2.164718430082742680E-13, 1.099999999999988987, 62.00000000000000000 ) ) ;
#186 = DIRECTION ( 'NONE',  ( 0.0000000000000000000, 0.0000000000000000000, 1.000000000000000000 ) ) ;
#187 = CIRCLE ( 'NONE', #161, 1.499999999999996669 ) ;
#188 = ADVANCED_FACE ( 'NONE', ( #207 ), #22, .F. ) ;
#189 = DIRECTION ( 'NONE',  ( -3.491481338843133355E-15, -1.224646799147354045E-15, -1.000000000000000000 ) ) ;
#190 = APPLICATION_CONTEXT ( 'configuration controlled 3d designs of mechanical parts and assemblies' ) ;
#191 = VERTEX_POINT ( 'NONE', #103 ) ;
#192 = CC_DESIGN_APPROVAL ( #240, ( #221 ) ) ;
#193 = CC_DESIGN_PERSON_AND_ORGANIZATION_ASSIGNMENT ( #219, #174, ( #171 ) ) ;
#194 = DATE_TIME_ROLE ( 'creation_date' ) ;
#195 = ORIENTED_EDGE ( 'NONE', *, *, #80, .T. ) ;
#196 = EDGE_LOOP ( 'NONE', ( #176 ) ) ;
#197 = CARTESIAN_POINT ( 'NONE',  ( 0.0000000000000000000, 0.0000000000000000000, 0.0000000000000000000 ) ) ;
#198 = ADVANCED_FACE ( 'NONE', ( #205, #263 ), #23, .T. ) ;
#199 = DIRECTION ( 'NONE',  ( 3.491481338843133355E-15, -1.224646799147353207E-16, 1.000000000000000000 ) ) ;
#200 = PERSON_AND_ORGANIZATION_ROLE ( 'creator' ) ;
#201 = DIRECTION ( 'NONE',  ( 6.162975822039254923E-30, -1.000000000000000000, 1.734723475976835296E-15 ) ) ;
#202 = CARTESIAN_POINT ( 'NONE',  ( 5.237222008264700664E-14, 1.836970198721031324E-14, 15.00000000000000178 ) ) ;
#203 = CARTESIAN_POINT ( 'NONE',  ( 5.237222008264700664E-14, 1.836970198721031324E-14, 15.00000000000000178 ) ) ;
#204 = CARTESIAN_POINT ( 'NONE',  ( -3.491481338843130200E-15, -1.224646799147353059E-15, -0.9999999999999991118 ) ) ;
#205 = FACE_OUTER_BOUND ( 'NONE', #246, .T. ) ;
#206 = PRODUCT_DEFINITION_FORMATION_WITH_SPECIFIED_SOURCE ( 'ANY', '', #171, .NOT_KNOWN. ) ;
#207 = FACE_OUTER_BOUND ( 'NONE', #49, .T. ) ;
#208 = VERTEX_POINT ( 'NONE', #60 ) ;
#209 = CIRCLE ( 'NONE', #102, 1.049999999999999378 ) ;
#210 = COORDINATED_UNIVERSAL_TIME_OFFSET ( 1, 0, .AHEAD. ) ;
#211 = EDGE_LOOP ( 'NONE', ( #132 ) ) ;
#212 = AXIS2_PLACEMENT_3D ( 'NONE', #257, #34, #121 ) ;
#213 = DATE_TIME_ROLE ( 'classification_date' ) ;
#214 = EDGE_CURVE ( 'NONE', #191, #191, #187, .T. ) ;
#215 = DIRECTION ( 'NONE',  ( 3.491481338843133355E-15, 1.224646799147354045E-15, 1.000000000000000000 ) ) ;
#216 = AXIS2_PLACEMENT_3D ( 'NONE', #203, #21, #141 ) ;
#217 = CARTESIAN_POINT ( 'NONE',  ( 6.633814543801950851E-14, 2.326828918379972548E-14, 18.99999999999999645 ) ) ;
#218 = DIRECTION ( 'NONE',  ( 4.148156803295587124E-30, -1.000000000000000000, 1.251002506714044230E-15 ) ) ;
#219 = PERSON_AND_ORGANIZATION ( #134, #19 ) ;
#220 = AXIS2_PLACEMENT_3D ( 'NONE', #81, #199, #36 ) ;
#221 = SECURITY_CLASSIFICATION ( '', '', #118 ) ;
#222 = CC_DESIGN_DATE_AND_TIME_ASSIGNMENT ( #35, #213, ( #221 ) ) ;
#223 = AXIS2_PLACEMENT_3D ( 'NONE', #202, #100, #75 ) ;
#224 = CARTESIAN_POINT ( 'NONE',  ( 0.0000000000000000000, 0.0000000000000000000, 0.0000000000000000000 ) ) ;
#225 = EDGE_LOOP ( 'NONE', ( #11 ) ) ;
#226 = APPROVAL_STATUS ( 'not_yet_approved' ) ;
#227 = EDGE_LOOP ( 'NONE', ( #116 ) ) ;
#228 = AXIS2_PLACEMENT_3D ( 'NONE', #85, #241, #145 ) ;
#229 = PERSON_AND_ORGANIZATION ( #134, #19 ) ;
#230 = EDGE_CURVE ( 'NONE', #260, #260, #166, .T. ) ;
#231 = ORIENTED_EDGE ( 'NONE', *, *, #230, .T. ) ;
#232 = APPROVAL ( #29, 'UNSPECIFIED' ) ;
#233 = APPROVAL_DATE_TIME ( #97, #240 ) ;
#234 = DIRECTION ( 'NONE',  ( -3.491481338843133355E-15, -1.224646799147354045E-15, -1.000000000000000000 ) ) ;
#235 = APPROVAL_PERSON_ORGANIZATION ( #150, #9, #129 ) ;
#236 = DIRECTION ( 'NONE',  ( 0.0000000000000000000, 1.000000000000000000, 0.0000000000000000000 ) ) ;
#237 = PERSON_AND_ORGANIZATION_ROLE ( 'design_supplier' ) ;
#238 = FACE_BOUND ( 'NONE', #112, .T. ) ;
#239 = APPLICATION_PROTOCOL_DEFINITION ( 'international standard', 'config_control_design', 1994, #43 ) ;
#240 = APPROVAL ( #10, 'UNSPECIFIED' ) ;
#241 = DIRECTION ( 'NONE',  ( -3.491481338843133355E-15, 1.224646799147353207E-16, -1.000000000000000000 ) ) ;
#242 = CONICAL_SURFACE ( 'NONE', #111, 1.999999999999967581, 0.5235987755982988157 ) ;
#243 = DIRECTION ( 'NONE',  ( -3.491481338843133355E-15, 1.224646799147353207E-16, -1.000000000000000000 ) ) ;
#244 =( LENGTH_UNIT ( ) NAMED_UNIT ( * ) SI_UNIT ( .MILLI., .METRE. ) );
#245 = AXIS2_PLACEMENT_3D ( 'NONE', #217, #156, #17 ) ;
#246 = EDGE_LOOP ( 'NONE', ( #114 ) ) ;
#247 = ADVANCED_FACE ( 'NONE', ( #128, #108 ), #86, .T. ) ;
#248 = APPROVAL_DATE_TIME ( #173, #9 ) ;
#249 = CLOSED_SHELL ( 'NONE', ( #157, #20, #5, #44 ) ) ;
#250 = ORIENTED_EDGE ( 'NONE', *, *, #89, .T. ) ;
#251 = FACE_OUTER_BOUND ( 'NONE', #227, .T. ) ;
#252 = CIRCLE ( 'NONE', #41, 1.099999999999996536 ) ;
#253 = PERSON_AND_ORGANIZATION ( #134, #19 ) ;
#254 = CARTESIAN_POINT ( 'NONE',  ( 1.798448434459776369E-15, 6.308107948881372989E-16, 0.5150961038948796977 ) ) ;
#255 = DIRECTION ( 'NONE',  ( -3.491481338843133355E-15, 1.224646799147353207E-16, -1.000000000000000000 ) ) ;
#256 = DESIGN_CONTEXT ( 'detailed design', #190, 'design' ) ;
#257 = CARTESIAN_POINT ( 'NONE',  ( 1.334335044876542883E-15, 4.680217314979659461E-16, 0.3821687459795106157 ) ) ;
#258 = LOCAL_TIME ( 11, 33, 59.00000000000000000, #158 ) ;
#259 = DIRECTION ( 'NONE',  ( -3.491481338843133355E-15, -1.224646799147354045E-15, -1.000000000000000000 ) ) ;
#260 = VERTEX_POINT ( 'NONE', #164 ) ;
#261 = CC_DESIGN_DATE_AND_TIME_ASSIGNMENT ( #110, #194, ( #113 ) ) ;
#262 = CARTESIAN_POINT ( 'NONE',  ( 2.164718430082742680E-13, 8.248678804640077261E-33, 62.00000000000000000 ) ) ;
#263 = FACE_OUTER_BOUND ( 'NONE', #55, .T. ) ;
ENDSEC;
END-ISO-10303-21;
