ISO-10303-21;
HEADER;
FILE_DESCRIPTION (( 'STEP AP203' ),
    '1' );
FILE_NAME ('626.step',
    '2021-12-06T12:59:56',
    ( '' ),
    ( '' ),
    'SwSTEP 2.0',
    'SolidWorks 2019',
    '' );
FILE_SCHEMA (( 'CONFIG_CONTROL_DESIGN' ));
ENDSEC;

DATA;
#1 = APPROVAL_DATE_TIME ( #14, #78 ) ;
#2 = CARTESIAN_POINT ( 'NONE',  ( 1.047444401652940007E-14, 10.00000000000000000, 3.000000000000000000 ) ) ;
#3 = DIRECTION ( 'NONE',  ( -3.491481338843133355E-15, 1.224646799147353207E-16, -1.000000000000000000 ) ) ;
#4 = CIRCLE ( 'NONE', #161, 2.500000000000000000 ) ;
#5 = CC_DESIGN_PERSON_AND_ORGANIZATION_ASSIGNMENT ( #44, #102, ( #137 ) ) ;
#6 = LOCAL_TIME ( 13, 59, 56.00000000000000000, #167 ) ;
#7 = PERSON_AND_ORGANIZATION ( #54, #64 ) ;
#8 = APPROVAL_DATE_TIME ( #66, #96 ) ;
#9 = DIRECTION ( 'NONE',  ( 1.000000000000000000, 0.0000000000000000000, 0.0000000000000000000 ) ) ;
#10 = PLANE ( 'NONE',  #17 ) ;
#11 = CC_DESIGN_PERSON_AND_ORGANIZATION_ASSIGNMENT ( #71, #60, ( #41 ) ) ;
#12 = CC_DESIGN_APPROVAL ( #129, ( #137 ) ) ;
#13 = ORIENTED_EDGE ( 'NONE', *, *, #165, .F. ) ;
#14 = DATE_AND_TIME ( #49, #126 ) ;
#15 = EDGE_LOOP ( 'NONE', ( #99 ) ) ;
#16 = DATE_AND_TIME ( #125, #6 ) ;
#17 = AXIS2_PLACEMENT_3D ( 'NONE', #108, #75, #158 ) ;
#18 = COORDINATED_UNIVERSAL_TIME_OFFSET ( 1, 0, .AHEAD. ) ;
#19 =( NAMED_UNIT ( * ) PLANE_ANGLE_UNIT ( ) SI_UNIT ( $, .RADIAN. ) );
#20 = CARTESIAN_POINT ( 'NONE',  ( -1.068957861474239564E-30, 3.749399456654644020E-32, -3.061616997868383141E-16 ) ) ;
#21 = AXIS2_PLACEMENT_3D ( 'NONE', #134, #72, #168 ) ;
#22 = DATE_AND_TIME ( #40, #39 ) ;
#23 = LOCAL_TIME ( 13, 59, 56.00000000000000000, #73 ) ;
#24 = PERSON_AND_ORGANIZATION_ROLE ( 'design_owner' ) ;
#25 = CALENDAR_DATE ( 2021, 6, 12 ) ;
#26 = COORDINATED_UNIVERSAL_TIME_OFFSET ( 1, 0, .AHEAD. ) ;
#27 = FACE_OUTER_BOUND ( 'NONE', #133, .T. ) ;
#28 = EDGE_LOOP ( 'NONE', ( #56 ) ) ;
#29 = ORIENTED_EDGE ( 'NONE', *, *, #47, .T. ) ;
#30 =( GEOMETRIC_REPRESENTATION_CONTEXT ( 3 ) GLOBAL_UNCERTAINTY_ASSIGNED_CONTEXT ( ( #38 ) ) GLOBAL_UNIT_ASSIGNED_CONTEXT ( ( #59, #19, #136 ) ) REPRESENTATION_CONTEXT ( 'NONE', 'WORKASPACE' ) );
#31 = DIRECTION ( 'NONE',  ( 6.162975822039154730E-31, 1.000000000000000000, 1.734723475976807094E-16 ) ) ;
#32 = FACE_OUTER_BOUND ( 'NONE', #131, .T. ) ;
#33 = PERSON_AND_ORGANIZATION_ROLE ( 'design_supplier' ) ;
#34 = VERTEX_POINT ( 'NONE', #2 ) ;
#35 = VERTEX_POINT ( 'NONE', #160 ) ;
#36 = SECURITY_CLASSIFICATION ( '', '', #65 ) ;
#37 = APPROVAL_ROLE ( '' ) ;
#38 = UNCERTAINTY_MEASURE_WITH_UNIT (LENGTH_MEASURE( 1.000000000000000082E-05 ), #59, 'distance_accuracy_value', 'NONE');
#39 = LOCAL_TIME ( 13, 59, 56.00000000000000000, #120 ) ;
#40 = CALENDAR_DATE ( 2021, 6, 12 ) ;
#41 = PRODUCT_DEFINITION ( 'UNKNOWN', '', #137, #116 ) ;
#42 = APPLICATION_PROTOCOL_DEFINITION ( 'international standard', 'config_control_design', 1994, #81 ) ;
#43 = DIRECTION ( 'NONE',  ( -3.491481338843133355E-15, 1.224646799147353207E-16, -1.000000000000000000 ) ) ;
#44 = PERSON_AND_ORGANIZATION ( #54, #64 ) ;
#45 = DIRECTION ( 'NONE',  ( -3.491481338843133355E-15, 1.224646799147353207E-16, -1.000000000000000000 ) ) ;
#46 = PRODUCT_DEFINITION_SHAPE ( 'NONE', 'NONE',  #41 ) ;
#47 = EDGE_CURVE ( 'NONE', #34, #34, #74, .T. ) ;
#48 = AXIS2_PLACEMENT_3D ( 'NONE', #20, #45, #144 ) ;
#49 = CALENDAR_DATE ( 2021, 6, 12 ) ;
#50 = CARTESIAN_POINT ( 'NONE',  ( -4.275831445896958256E-30, 1.499759782661857608E-31, -1.224646799147353256E-15 ) ) ;
#51 = CLOSED_SHELL ( 'NONE', ( #89, #107, #70, #80 ) ) ;
#52 = EDGE_CURVE ( 'NONE', #35, #35, #4, .T. ) ;
#53 = CC_DESIGN_DATE_AND_TIME_ASSIGNMENT ( #16, #63, ( #41 ) ) ;
#54 = PERSON ( 'UNSPECIFIED', 'UNSPECIFIED', 'UNSPECIFIED', ('UNSPECIFIED'), ('UNSPECIFIED'), ('UNSPECIFIED') ) ;
#55 = CARTESIAN_POINT ( 'NONE',  ( 1.047444401652939533E-14, -3.673940397442058389E-16, 2.999999999999998668 ) ) ;
#56 = ORIENTED_EDGE ( 'NONE', *, *, #52, .T. ) ;
#57 = DATE_AND_TIME ( #90, #23 ) ;
#58 = FACE_BOUND ( 'NONE', #84, .T. ) ;
#59 =( LENGTH_UNIT ( ) NAMED_UNIT ( * ) SI_UNIT ( .MILLI., .METRE. ) );
#60 = PERSON_AND_ORGANIZATION_ROLE ( 'creator' ) ;
#61 = DIRECTION ( 'NONE',  ( 4.275831445896958607E-31, 1.000000000000000000, 1.224646799147353207E-16 ) ) ;
#62 = CARTESIAN_POINT ( 'NONE',  ( 0.0000000000000000000, 10.00000000000000000, 0.0000000000000000000 ) ) ;
#63 = DATE_TIME_ROLE ( 'creation_date' ) ;
#64 = ORGANIZATION ( 'UNSPECIFIED', 'UNSPECIFIED', '' ) ;
#65 = SECURITY_CLASSIFICATION_LEVEL ( 'unclassified' ) ;
#66 = DATE_AND_TIME ( #25, #162 ) ;
#67 = APPROVAL_STATUS ( 'not_yet_approved' ) ;
#68 = ORIENTED_EDGE ( 'NONE', *, *, #47, .F. ) ;
#69 = CC_DESIGN_APPROVAL ( #78, ( #41 ) ) ;
#70 = ADVANCED_FACE ( 'NONE', ( #103, #27 ), #82, .T. ) ;
#71 = PERSON_AND_ORGANIZATION ( #54, #64 ) ;
#72 = DIRECTION ( 'NONE',  ( -3.491481338843133355E-15, 1.224646799147353207E-16, -1.000000000000000000 ) ) ;
#73 = COORDINATED_UNIVERSAL_TIME_OFFSET ( 1, 0, .AHEAD. ) ;
#74 = CIRCLE ( 'NONE', #77, 10.00000000000000000 ) ;
#75 = DIRECTION ( 'NONE',  ( -3.491481338843133355E-15, 1.224646799147353207E-16, -1.000000000000000000 ) ) ;
#76 = APPLICATION_PROTOCOL_DEFINITION ( 'international standard', 'config_control_design', 1994, #135 ) ;
#77 = AXIS2_PLACEMENT_3D ( 'NONE', #55, #141, #123 ) ;
#78 = APPROVAL ( #67, 'UNSPECIFIED' ) ;
#79 = APPROVAL_PERSON_ORGANIZATION ( #7, #96, #118 ) ;
#80 = ADVANCED_FACE ( 'NONE', ( #142, #32 ), #87, .F. ) ;
#81 = APPLICATION_CONTEXT ( 'configuration controlled 3d designs of mechanical parts and assemblies' ) ;
#82 = PLANE ( 'NONE',  #98 ) ;
#83 = EDGE_LOOP ( 'NONE', ( #111 ) ) ;
#84 = EDGE_LOOP ( 'NONE', ( #166 ) ) ;
#85 = AXIS2_PLACEMENT_3D ( 'NONE', #104, #3, #124 ) ;
#86 = DIRECTION ( 'NONE',  ( 3.491481338843133355E-15, -1.224646799147353207E-16, 1.000000000000000000 ) ) ;
#87 = CYLINDRICAL_SURFACE ( 'NONE', #21, 2.500000000000000000 ) ;
#88 = AXIS2_PLACEMENT_3D ( 'NONE', #138, #119, #9 ) ;
#89 = ADVANCED_FACE ( 'NONE', ( #130, #58 ), #10, .T. ) ;
#90 = CALENDAR_DATE ( 2021, 6, 12 ) ;
#91 = CC_DESIGN_PERSON_AND_ORGANIZATION_ASSIGNMENT ( #163, #92, ( #36 ) ) ;
#92 = PERSON_AND_ORGANIZATION_ROLE ( 'classification_officer' ) ;
#93 = CC_DESIGN_SECURITY_CLASSIFICATION ( #36, ( #137 ) ) ;
#94 = DATE_TIME_ROLE ( 'classification_date' ) ;
#95 = ADVANCED_BREP_SHAPE_REPRESENTATION ( '626', ( #105, #88 ), #30 ) ;
#96 = APPROVAL ( #128, 'UNSPECIFIED' ) ;
#97 = CIRCLE ( 'NONE', #48, 2.500000000000000000 ) ;
#98 = AXIS2_PLACEMENT_3D ( 'NONE', #139, #86, #101 ) ;
#99 = ORIENTED_EDGE ( 'NONE', *, *, #165, .T. ) ;
#100 = CARTESIAN_POINT ( 'NONE',  ( 1.047444401652939849E-14, -3.673940397442059375E-16, 2.999999999999999556 ) ) ;
#101 = DIRECTION ( 'NONE',  ( -4.275831445896958607E-31, -1.000000000000000000, -1.224646799147353207E-16 ) ) ;
#102 = PERSON_AND_ORGANIZATION_ROLE ( 'creator' ) ;
#103 = FACE_BOUND ( 'NONE', #28, .T. ) ;
#104 = CARTESIAN_POINT ( 'NONE',  ( 0.0000000000000000000, 0.0000000000000000000, 0.0000000000000000000 ) ) ;
#105 = MANIFOLD_SOLID_BREP ( 'Corps-Déplacer/Copier1', #51 ) ;
#106 = EDGE_CURVE ( 'NONE', #169, #169, #97, .T. ) ;
#107 = ADVANCED_FACE ( 'NONE', ( #114, #115 ), #112, .T. ) ;
#108 = CARTESIAN_POINT ( 'NONE',  ( -1.603436792211359872E-30, 2.500000000000000000, -4.592425496802574958E-16 ) ) ;
#109 = APPROVAL_PERSON_ORGANIZATION ( #113, #129, #117 ) ;
#110 = PRODUCT ( '626', '626', '', ( #121 ) ) ;
#111 = ORIENTED_EDGE ( 'NONE', *, *, #106, .T. ) ;
#112 = CYLINDRICAL_SURFACE ( 'NONE', #85, 10.00000000000000000 ) ;
#113 = PERSON_AND_ORGANIZATION ( #54, #64 ) ;
#114 = FACE_OUTER_BOUND ( 'NONE', #164, .T. ) ;
#115 = FACE_OUTER_BOUND ( 'NONE', #140, .T. ) ;
#116 = DESIGN_CONTEXT ( 'detailed design', #81, 'design' ) ;
#117 = APPROVAL_ROLE ( '' ) ;
#118 = APPROVAL_ROLE ( '' ) ;
#119 = DIRECTION ( 'NONE',  ( 0.0000000000000000000, 0.0000000000000000000, 1.000000000000000000 ) ) ;
#120 = COORDINATED_UNIVERSAL_TIME_OFFSET ( 1, 0, .AHEAD. ) ;
#121 = MECHANICAL_CONTEXT ( 'NONE', #135, 'mechanical' ) ;
#122 = AXIS2_PLACEMENT_3D ( 'NONE', #50, #145, #61 ) ;
#123 = DIRECTION ( 'NONE',  ( 4.622231866529366047E-31, 1.000000000000000000, 1.301042606982605321E-16 ) ) ;
#124 = DIRECTION ( 'NONE',  ( 4.275831445896958607E-31, 1.000000000000000000, 1.224646799147353207E-16 ) ) ;
#125 = CALENDAR_DATE ( 2021, 6, 12 ) ;
#126 = LOCAL_TIME ( 13, 59, 56.00000000000000000, #18 ) ;
#127 = PERSON_AND_ORGANIZATION ( #54, #64 ) ;
#128 = APPROVAL_STATUS ( 'not_yet_approved' ) ;
#129 = APPROVAL ( #148, 'UNSPECIFIED' ) ;
#130 = FACE_OUTER_BOUND ( 'NONE', #15, .T. ) ;
#131 = EDGE_LOOP ( 'NONE', ( #155 ) ) ;
#132 = CC_DESIGN_DATE_AND_TIME_ASSIGNMENT ( #22, #94, ( #36 ) ) ;
#133 = EDGE_LOOP ( 'NONE', ( #68 ) ) ;
#134 = CARTESIAN_POINT ( 'NONE',  ( 0.0000000000000000000, 0.0000000000000000000, 0.0000000000000000000 ) ) ;
#135 = APPLICATION_CONTEXT ( 'configuration controlled 3d designs of mechanical parts and assemblies' ) ;
#136 =( NAMED_UNIT ( * ) SI_UNIT ( $, .STERADIAN. ) SOLID_ANGLE_UNIT ( ) );
#137 = PRODUCT_DEFINITION_FORMATION_WITH_SPECIFIED_SOURCE ( 'ANY', '', #110, .NOT_KNOWN. ) ;
#138 = CARTESIAN_POINT ( 'NONE',  ( 0.0000000000000000000, 0.0000000000000000000, 0.0000000000000000000 ) ) ;
#139 = CARTESIAN_POINT ( 'NONE',  ( 1.047444401652939849E-14, 2.499999999999999556, 2.999999999999999556 ) ) ;
#140 = EDGE_LOOP ( 'NONE', ( #13 ) ) ;
#141 = DIRECTION ( 'NONE',  ( -3.491481338843133355E-15, 1.224646799147353207E-16, -1.000000000000000000 ) ) ;
#142 = FACE_OUTER_BOUND ( 'NONE', #83, .T. ) ;
#143 = PERSON_AND_ORGANIZATION ( #54, #64 ) ;
#144 = DIRECTION ( 'NONE',  ( 4.275831445896958607E-31, 1.000000000000000000, 1.224646799147353207E-16 ) ) ;
#145 = DIRECTION ( 'NONE',  ( -3.491481338843133355E-15, 1.224646799147353207E-16, -1.000000000000000000 ) ) ;
#146 = PRODUCT_RELATED_PRODUCT_CATEGORY ( 'detail', '', ( #110 ) ) ;
#147 = VERTEX_POINT ( 'NONE', #62 ) ;
#148 = APPROVAL_STATUS ( 'not_yet_approved' ) ;
#149 = CIRCLE ( 'NONE', #122, 10.00000000000000000 ) ;
#150 = SHAPE_DEFINITION_REPRESENTATION ( #46, #95 ) ;
#151 = CC_DESIGN_PERSON_AND_ORGANIZATION_ASSIGNMENT ( #143, #33, ( #137 ) ) ;
#152 = APPROVAL_PERSON_ORGANIZATION ( #154, #78, #37 ) ;
#153 = CC_DESIGN_PERSON_AND_ORGANIZATION_ASSIGNMENT ( #127, #24, ( #110 ) ) ;
#154 = PERSON_AND_ORGANIZATION ( #54, #64 ) ;
#155 = ORIENTED_EDGE ( 'NONE', *, *, #52, .F. ) ;
#156 = APPROVAL_DATE_TIME ( #57, #129 ) ;
#157 = CARTESIAN_POINT ( 'NONE',  ( 0.0000000000000000000, 2.500000000000000000, 0.0000000000000000000 ) ) ;
#158 = DIRECTION ( 'NONE',  ( 4.275831445896958607E-31, 1.000000000000000000, 1.224646799147353207E-16 ) ) ;
#159 = CC_DESIGN_APPROVAL ( #96, ( #36 ) ) ;
#160 = CARTESIAN_POINT ( 'NONE',  ( 1.047444401652940007E-14, 2.499999999999999556, 3.000000000000000000 ) ) ;
#161 = AXIS2_PLACEMENT_3D ( 'NONE', #100, #43, #31 ) ;
#162 = LOCAL_TIME ( 13, 59, 56.00000000000000000, #26 ) ;
#163 = PERSON_AND_ORGANIZATION ( #54, #64 ) ;
#164 = EDGE_LOOP ( 'NONE', ( #29 ) ) ;
#165 = EDGE_CURVE ( 'NONE', #147, #147, #149, .T. ) ;
#166 = ORIENTED_EDGE ( 'NONE', *, *, #106, .F. ) ;
#167 = COORDINATED_UNIVERSAL_TIME_OFFSET ( 1, 0, .AHEAD. ) ;
#168 = DIRECTION ( 'NONE',  ( 4.275831445896958607E-31, 1.000000000000000000, 1.224646799147353207E-16 ) ) ;
#169 = VERTEX_POINT ( 'NONE', #157 ) ;
ENDSEC;
END-ISO-10303-21;
