ISO-10303-21;
HEADER;
FILE_DESCRIPTION (( 'STEP AP203' ),
    '1' );
FILE_NAME ('62538.step',
    '2021-11-10T07:14:14',
    ( '' ),
    ( '' ),
    'SwSTEP 2.0',
    'SolidWorks 2019',
    '' );
FILE_SCHEMA (( 'CONFIG_CONTROL_DESIGN' ));
ENDSEC;

DATA;
#1 = EDGE_CURVE ( 'NONE', #61, #61, #7, .T. ) ;
#2 = FACE_OUTER_BOUND ( 'NONE', #187, .T. ) ;
#3 = DIRECTION ( 'NONE',  ( 3.491481338843133355E-15, -1.224646799147353207E-16, 1.000000000000000000 ) ) ;
#4 = VERTEX_POINT ( 'NONE', #63 ) ;
#5 = EDGE_CURVE ( 'NONE', #138, #138, #81, .T. ) ;
#6 = VERTEX_POINT ( 'NONE', #46 ) ;
#7 = CIRCLE ( 'NONE', #25, 0.5181483474218598895 ) ;
#8 =( LENGTH_UNIT ( ) NAMED_UNIT ( * ) SI_UNIT ( .MILLI., .METRE. ) );
#9 = DIRECTION ( 'NONE',  ( 1.000000000000000000, 0.0000000000000000000, 0.0000000000000000000 ) ) ;
#10 = APPROVAL_ROLE ( '' ) ;
#11 = ORIENTED_EDGE ( 'NONE', *, *, #230, .T. ) ;
#12 = ADVANCED_FACE ( 'NONE', ( #193, #226 ), #171, .F. ) ;
#13 = AXIS2_PLACEMENT_3D ( 'NONE', #157, #221, #41 ) ;
#14 = PERSON_AND_ORGANIZATION ( #208, #99 ) ;
#15 = EDGE_LOOP ( 'NONE', ( #113 ) ) ;
#16 = DIRECTION ( 'NONE',  ( 1.000000000000000000, 0.0000000000000000000, -3.373073425510458853E-15 ) ) ;
#17 = COORDINATED_UNIVERSAL_TIME_OFFSET ( 1, 0, .AHEAD. ) ;
#18 = DIRECTION ( 'NONE',  ( 3.491481338843133355E-15, -1.224646799147353207E-16, 1.000000000000000000 ) ) ;
#19 = CARTESIAN_POINT ( 'NONE',  ( 1.774356271978931205E-14, 0.0000000000000000000, 5.081958343122194854 ) ) ;
#20 = EDGE_LOOP ( 'NONE', ( #172 ) ) ;
#21 = AXIS2_PLACEMENT_3D ( 'NONE', #196, #35, #16 ) ;
#22 = CC_DESIGN_PERSON_AND_ORGANIZATION_ASSIGNMENT ( #211, #236, ( #90 ) ) ;
#23 = CARTESIAN_POINT ( 'NONE',  ( 0.0000000000000000000, 0.0000000000000000000, 0.0000000000000000000 ) ) ;
#24 = CARTESIAN_POINT ( 'NONE',  ( 0.4500000000000030087, 0.0000000000000000000, 0.8999999999999976907 ) ) ;
#25 = AXIS2_PLACEMENT_3D ( 'NONE', #73, #148, #150 ) ;
#26 = LOCAL_TIME ( 8, 14, 14.00000000000000000, #82 ) ;
#27 = DIRECTION ( 'NONE',  ( 0.0000000000000000000, 1.000000000000000000, 0.0000000000000000000 ) ) ;
#28 = CC_DESIGN_PERSON_AND_ORGANIZATION_ASSIGNMENT ( #92, #242, ( #133 ) ) ;
#29 = DATE_TIME_ROLE ( 'classification_date' ) ;
#30 = PRODUCT ( '62538', '62538', '', ( #53 ) ) ;
#31 = CC_DESIGN_SECURITY_CLASSIFICATION ( #90, ( #133 ) ) ;
#32 = EDGE_LOOP ( 'NONE', ( #183 ) ) ;
#33 = EDGE_LOOP ( 'NONE', ( #241 ) ) ;
#34 = APPROVAL_DATE_TIME ( #142, #116 ) ;
#35 = DIRECTION ( 'NONE',  ( 3.491481338843133355E-15, -0.0000000000000000000, 1.000000000000000000 ) ) ;
#36 = ORIENTED_EDGE ( 'NONE', *, *, #230, .F. ) ;
#37 = AXIS2_PLACEMENT_3D ( 'NONE', #23, #136, #108 ) ;
#38 = FACE_BOUND ( 'NONE', #111, .T. ) ;
#39 = DIRECTION ( 'NONE',  ( 3.491481338843133355E-15, -0.0000000000000000000, 1.000000000000000000 ) ) ;
#40 = DIRECTION ( 'NONE',  ( 0.0000000000000000000, 1.000000000000000000, 0.0000000000000000000 ) ) ;
#41 = DIRECTION ( 'NONE',  ( 0.0000000000000000000, 1.000000000000000000, 0.0000000000000000000 ) ) ;
#42 = PRODUCT_DEFINITION_SHAPE ( 'NONE', 'NONE',  #120 ) ;
#43 = CC_DESIGN_DATE_AND_TIME_ASSIGNMENT ( #119, #29, ( #90 ) ) ;
#44 = AXIS2_PLACEMENT_3D ( 'NONE', #189, #173, #170 ) ;
#45 = CARTESIAN_POINT ( 'NONE',  ( 1.326762908760390423E-13, 1.199999999999994182, 38.00000000000000000 ) ) ;
#46 = CARTESIAN_POINT ( 'NONE',  ( 1.500000000000013989, 0.0000000000000000000, 5.081958343122189525 ) ) ;
#47 = ADVANCED_FACE ( 'NONE', ( #55 ), #71, .F. ) ;
#48 = ORIENTED_EDGE ( 'NONE', *, *, #181, .F. ) ;
#49 = ORIENTED_EDGE ( 'NONE', *, *, #5, .F. ) ;
#50 =( NAMED_UNIT ( * ) SI_UNIT ( $, .STERADIAN. ) SOLID_ANGLE_UNIT ( ) );
#51 = APPROVAL ( #68, 'UNSPECIFIED' ) ;
#52 = DATE_AND_TIME ( #188, #212 ) ;
#53 = MECHANICAL_CONTEXT ( 'NONE', #84, 'mechanical' ) ;
#54 = CARTESIAN_POINT ( 'NONE',  ( 3.142333204958817259E-15, 0.0000000000000000000, 0.8999999999999992450 ) ) ;
#55 = FACE_OUTER_BOUND ( 'NONE', #20, .T. ) ;
#56 = APPROVAL_STATUS ( 'not_yet_approved' ) ;
#57 = ORIENTED_EDGE ( 'NONE', *, *, #175, .T. ) ;
#58 = AXIS2_PLACEMENT_3D ( 'NONE', #137, #3, #91 ) ;
#59 = FACE_OUTER_BOUND ( 'NONE', #87, .T. ) ;
#60 = DIRECTION ( 'NONE',  ( 3.491481338843133355E-15, -0.0000000000000000000, 1.000000000000000000 ) ) ;
#61 = VERTEX_POINT ( 'NONE', #178 ) ;
#62 = FACE_OUTER_BOUND ( 'NONE', #203, .T. ) ;
#63 = CARTESIAN_POINT ( 'NONE',  ( 0.4500000000000030087, 0.0000000000000000000, 0.8999999999999976907 ) ) ;
#64 = AXIS2_PLACEMENT_3D ( 'NONE', #115, #197, #27 ) ;
#65 = AXIS2_PLACEMENT_3D ( 'NONE', #214, #228, #239 ) ;
#66 = CC_DESIGN_APPROVAL ( #67, ( #133 ) ) ;
#67 = APPROVAL ( #56, 'UNSPECIFIED' ) ;
#68 = APPROVAL_STATUS ( 'not_yet_approved' ) ;
#69 = ADVANCED_BREP_SHAPE_REPRESENTATION ( '62538', ( #143, #141, #216 ), #146 ) ;
#70 = AXIS2_PLACEMENT_3D ( 'NONE', #100, #233, #177 ) ;
#71 = PLANE ( 'NONE',  #125 ) ;
#72 = CC_DESIGN_PERSON_AND_ORGANIZATION_ASSIGNMENT ( #225, #186, ( #30 ) ) ;
#73 = CARTESIAN_POINT ( 'NONE',  ( 4.949656937184074034E-15, 0.0000000000000000000, 1.417638090205028067 ) ) ;
#74 = PERSON_AND_ORGANIZATION_ROLE ( 'creator' ) ;
#75 = DIRECTION ( 'NONE',  ( 4.275831445896958607E-31, 1.000000000000000000, 1.224646799147353207E-16 ) ) ;
#76 = PLANE ( 'NONE',  #231 ) ;
#77 = DIRECTION ( 'NONE',  ( 1.000000000000000000, 0.0000000000000000000, -3.469446951953622866E-15 ) ) ;
#78 = PLANE ( 'NONE',  #70 ) ;
#79 = CYLINDRICAL_SURFACE ( 'NONE', #159, 0.4499999999999999001 ) ;
#80 = VERTEX_POINT ( 'NONE', #45 ) ;
#81 = CIRCLE ( 'NONE', #37, 0.4499999999999999001 ) ;
#82 = COORDINATED_UNIVERSAL_TIME_OFFSET ( 1, 0, .AHEAD. ) ;
#83 = ORIENTED_EDGE ( 'NONE', *, *, #5, .T. ) ;
#84 = APPLICATION_CONTEXT ( 'configuration controlled 3d designs of mechanical parts and assemblies' ) ;
#85 = PERSON_AND_ORGANIZATION ( #208, #99 ) ;
#86 = ADVANCED_FACE ( 'NONE', ( #38, #131 ), #191, .T. ) ;
#87 = EDGE_LOOP ( 'NONE', ( #57 ) ) ;
#88 = PERSON_AND_ORGANIZATION ( #208, #99 ) ;
#89 = AXIS2_PLACEMENT_3D ( 'NONE', #94, #174, #40 ) ;
#90 = SECURITY_CLASSIFICATION ( '', '', #149 ) ;
#91 = DIRECTION ( 'NONE',  ( -4.275831445896958607E-31, -1.000000000000000000, -1.224646799147353207E-16 ) ) ;
#92 = PERSON_AND_ORGANIZATION ( #208, #99 ) ;
#93 = FACE_OUTER_BOUND ( 'NONE', #96, .T. ) ;
#94 = CARTESIAN_POINT ( 'NONE',  ( 1.326762908760390423E-13, -4.653657836759941941E-15, 38.00000000000000000 ) ) ;
#95 = AXIS2_PLACEMENT_3D ( 'NONE', #54, #209, #213 ) ;
#96 = EDGE_LOOP ( 'NONE', ( #11 ) ) ;
#97 = LOCAL_TIME ( 8, 14, 14.00000000000000000, #128 ) ;
#98 = FACE_OUTER_BOUND ( 'NONE', #127, .T. ) ;
#99 = ORGANIZATION ( 'UNSPECIFIED', 'UNSPECIFIED', '' ) ;
#100 = CARTESIAN_POINT ( 'NONE',  ( 3.142333204958818836E-15, -1.301042606982608526E-16, 0.8999999999999996891 ) ) ;
#101 = PERSON_AND_ORGANIZATION ( #208, #99 ) ;
#102 = COORDINATED_UNIVERSAL_TIME_OFFSET ( 1, 0, .AHEAD. ) ;
#103 = ORIENTED_EDGE ( 'NONE', *, *, #161, .F. ) ;
#104 = ADVANCED_FACE ( 'NONE', ( #93, #59 ), #215, .T. ) ;
#105 = SHAPE_DEFINITION_REPRESENTATION ( #42, #69 ) ;
#106 = APPROVAL_PERSON_ORGANIZATION ( #88, #51, #206 ) ;
#107 = ADVANCED_FACE ( 'NONE', ( #2 ), #76, .F. ) ;
#108 = DIRECTION ( 'NONE',  ( 1.000000000000000000, 0.0000000000000000000, -3.491481338843133355E-15 ) ) ;
#109 = CLOSED_SHELL ( 'NONE', ( #104, #204, #107, #12, #86, #47 ) ) ;
#110 = CARTESIAN_POINT ( 'NONE',  ( 1.774356271978931205E-14, 0.0000000000000000000, 5.081958343122194854 ) ) ;
#111 = EDGE_LOOP ( 'NONE', ( #164 ) ) ;
#112 = CC_DESIGN_PERSON_AND_ORGANIZATION_ASSIGNMENT ( #85, #74, ( #120 ) ) ;
#113 = ORIENTED_EDGE ( 'NONE', *, *, #175, .F. ) ;
#114 = CIRCLE ( 'NONE', #95, 0.4499999999999999001 ) ;
#115 = CARTESIAN_POINT ( 'NONE',  ( 1.326762908760390423E-13, -4.653657836759941941E-15, 38.00000000000000000 ) ) ;
#116 = APPROVAL ( #122, 'UNSPECIFIED' ) ;
#117 = CARTESIAN_POINT ( 'NONE',  ( -1.786038389295302186E-30, 0.0000000000000000000, -5.115417256925931626E-16 ) ) ;
#118 = CONICAL_SURFACE ( 'NONE', #64, 1.199999999999998845, 0.7853981633974450594 ) ;
#119 = DATE_AND_TIME ( #232, #126 ) ;
#120 = PRODUCT_DEFINITION ( 'UNKNOWN', '', #133, #223 ) ;
#121 = EDGE_LOOP ( 'NONE', ( #49 ) ) ;
#122 = APPROVAL_STATUS ( 'not_yet_approved' ) ;
#123 = APPROVAL_DATE_TIME ( #52, #67 ) ;
#124 = CC_DESIGN_PERSON_AND_ORGANIZATION_ASSIGNMENT ( #14, #238, ( #133 ) ) ;
#125 = AXIS2_PLACEMENT_3D ( 'NONE', #224, #18, #176 ) ;
#126 = LOCAL_TIME ( 8, 14, 14.00000000000000000, #102 ) ;
#127 = EDGE_LOOP ( 'NONE', ( #182 ) ) ;
#128 = COORDINATED_UNIVERSAL_TIME_OFFSET ( 1, 0, .AHEAD. ) ;
#129 = CARTESIAN_POINT ( 'NONE',  ( 1.326762908760390423E-13, 8.998558695971069014E-33, 38.00000000000000000 ) ) ;
#130 = APPROVAL_DATE_TIME ( #145, #51 ) ;
#131 = FACE_OUTER_BOUND ( 'NONE', #15, .T. ) ;
#132 = AXIS2_PLACEMENT_3D ( 'NONE', #110, #39, #195 ) ;
#133 = PRODUCT_DEFINITION_FORMATION_WITH_SPECIFIED_SOURCE ( 'ANY', '', #30, .NOT_KNOWN. ) ;
#134 = FACE_OUTER_BOUND ( 'NONE', #121, .T. ) ;
#135 = EDGE_CURVE ( 'NONE', #218, #218, #166, .T. ) ;
#136 = DIRECTION ( 'NONE',  ( 3.491481338843133355E-15, -0.0000000000000000000, 1.000000000000000000 ) ) ;
#137 = CARTESIAN_POINT ( 'NONE',  ( -6.413803915257457113E-31, 2.249659577954772199E-32, -1.836986451539393076E-16 ) ) ;
#138 = VERTEX_POINT ( 'NONE', #198 ) ;
#139 = FACE_OUTER_BOUND ( 'NONE', #234, .T. ) ;
#140 = CLOSED_SHELL ( 'NONE', ( #237, #207, #156 ) ) ;
#141 = MANIFOLD_SOLID_BREP ( 'Corps-Déplacer/Copier1[2]', #140 ) ;
#142 = DATE_AND_TIME ( #160, #26 ) ;
#143 = MANIFOLD_SOLID_BREP ( 'Corps-Déplacer/Copier1[1]', #109 ) ;
#144 = CALENDAR_DATE ( 2021, 10, 11 ) ;
#145 = DATE_AND_TIME ( #194, #235 ) ;
#146 =( GEOMETRIC_REPRESENTATION_CONTEXT ( 3 ) GLOBAL_UNCERTAINTY_ASSIGNED_CONTEXT ( ( #147 ) ) GLOBAL_UNIT_ASSIGNED_CONTEXT ( ( #8, #180, #50 ) ) REPRESENTATION_CONTEXT ( 'NONE', 'WORKASPACE' ) );
#147 = UNCERTAINTY_MEASURE_WITH_UNIT (LENGTH_MEASURE( 1.000000000000000082E-05 ), #8, 'distance_accuracy_value', 'NONE');
#148 = DIRECTION ( 'NONE',  ( 3.491481338843133355E-15, -0.0000000000000000000, 1.000000000000000000 ) ) ;
#149 = SECURITY_CLASSIFICATION_LEVEL ( 'unclassified' ) ;
#150 = DIRECTION ( 'NONE',  ( 1.000000000000000000, 0.0000000000000000000, -3.347928222888744221E-15 ) ) ;
#151 = FACE_OUTER_BOUND ( 'NONE', #210, .T. ) ;
#152 = PLANE ( 'NONE',  #58 ) ;
#153 = CARTESIAN_POINT ( 'NONE',  ( 1.316288464743861212E-13, 1.499999999999994005, 37.69999999999999574 ) ) ;
#154 = APPLICATION_CONTEXT ( 'configuration controlled 3d designs of mechanical parts and assemblies' ) ;
#155 = CIRCLE ( 'NONE', #13, 1.499999999999998446 ) ;
#156 = ADVANCED_FACE ( 'NONE', ( #134 ), #152, .F. ) ;
#157 = CARTESIAN_POINT ( 'NONE',  ( 1.316288464743861212E-13, -4.616918432785521081E-15, 37.69999999999999574 ) ) ;
#158 = DIRECTION ( 'NONE',  ( 3.491481338843133355E-15, -0.0000000000000000000, 1.000000000000000000 ) ) ;
#159 = AXIS2_PLACEMENT_3D ( 'NONE', #117, #158, #220 ) ;
#160 = CALENDAR_DATE ( 2021, 10, 11 ) ;
#161 = EDGE_CURVE ( 'NONE', #4, #4, #114, .T. ) ;
#162 = EDGE_LOOP ( 'NONE', ( #202 ) ) ;
#163 = APPLICATION_PROTOCOL_DEFINITION ( 'international standard', 'config_control_design', 1994, #84 ) ;
#164 = ORIENTED_EDGE ( 'NONE', *, *, #1, .T. ) ;
#165 = CARTESIAN_POINT ( 'NONE',  ( 0.0000000000000000000, 0.0000000000000000000, 0.0000000000000000000 ) ) ;
#166 = CIRCLE ( 'NONE', #21, 0.4499999999999999001 ) ;
#167 = APPROVAL_ROLE ( '' ) ;
#168 = APPROVAL_PERSON_ORGANIZATION ( #222, #67, #167 ) ;
#169 = COORDINATED_UNIVERSAL_TIME_OFFSET ( 1, 0, .AHEAD. ) ;
#170 = DIRECTION ( 'NONE',  ( 4.275831445896958607E-31, 1.000000000000000000, 1.224646799147352961E-16 ) ) ;
#171 = TOROIDAL_SURFACE ( 'NONE', #65, 2.449999999999999734, 2.000000000000000000 ) ;
#172 = ORIENTED_EDGE ( 'NONE', *, *, #135, .F. ) ;
#173 = DIRECTION ( 'NONE',  ( -3.491481338843133355E-15, 1.224646799147353207E-16, -1.000000000000000000 ) ) ;
#174 = DIRECTION ( 'NONE',  ( -3.491481338843133355E-15, 1.224646799147353207E-16, -1.000000000000000000 ) ) ;
#175 = EDGE_CURVE ( 'NONE', #6, #6, #219, .T. ) ;
#176 = DIRECTION ( 'NONE',  ( -4.275831445896958607E-31, -1.000000000000000000, -1.224646799147353207E-16 ) ) ;
#177 = DIRECTION ( 'NONE',  ( -4.275831445896958607E-31, -1.000000000000000000, -1.224646799147353207E-16 ) ) ;
#178 = CARTESIAN_POINT ( 'NONE',  ( 0.5181483474218648855, 0.0000000000000000000, 1.417638090205026291 ) ) ;
#179 = CC_DESIGN_APPROVAL ( #51, ( #120 ) ) ;
#180 =( NAMED_UNIT ( * ) PLANE_ANGLE_UNIT ( ) SI_UNIT ( $, .RADIAN. ) );
#181 = EDGE_CURVE ( 'NONE', #80, #80, #201, .T. ) ;
#182 = ORIENTED_EDGE ( 'NONE', *, *, #161, .T. ) ;
#183 = ORIENTED_EDGE ( 'NONE', *, *, #1, .F. ) ;
#184 = AXIS2_PLACEMENT_3D ( 'NONE', #19, #60, #77 ) ;
#185 = APPROVAL_PERSON_ORGANIZATION ( #101, #116, #10 ) ;
#186 = PERSON_AND_ORGANIZATION_ROLE ( 'design_owner' ) ;
#187 = EDGE_LOOP ( 'NONE', ( #48 ) ) ;
#188 = CALENDAR_DATE ( 2021, 10, 11 ) ;
#189 = CARTESIAN_POINT ( 'NONE',  ( 0.0000000000000000000, 0.0000000000000000000, 0.0000000000000000000 ) ) ;
#190 = APPLICATION_PROTOCOL_DEFINITION ( 'international standard', 'config_control_design', 1994, #154 ) ;
#191 = CONICAL_SURFACE ( 'NONE', #132, 1.499999999999996225, 0.2617993877991428575 ) ;
#192 = CC_DESIGN_APPROVAL ( #116, ( #90 ) ) ;
#193 = FACE_OUTER_BOUND ( 'NONE', #162, .T. ) ;
#194 = CALENDAR_DATE ( 2021, 10, 11 ) ;
#195 = DIRECTION ( 'NONE',  ( 1.000000000000000000, 0.0000000000000000000, -3.469446951953622866E-15 ) ) ;
#196 = CARTESIAN_POINT ( 'NONE',  ( 3.142333204958817259E-15, 0.0000000000000000000, 0.8999999999999992450 ) ) ;
#197 = DIRECTION ( 'NONE',  ( -3.491481338843133355E-15, 1.224646799147353207E-16, -1.000000000000000000 ) ) ;
#198 = CARTESIAN_POINT ( 'NONE',  ( 0.4499999999999999001, 0.0000000000000000000, -1.571166602479409615E-15 ) ) ;
#199 = PRODUCT_RELATED_PRODUCT_CATEGORY ( 'detail', '', ( #30 ) ) ;
#200 = VERTEX_POINT ( 'NONE', #153 ) ;
#201 = CIRCLE ( 'NONE', #89, 1.199999999999998845 ) ;
#202 = ORIENTED_EDGE ( 'NONE', *, *, #135, .T. ) ;
#203 = EDGE_LOOP ( 'NONE', ( #83 ) ) ;
#204 = ADVANCED_FACE ( 'NONE', ( #151, #229 ), #118, .T. ) ;
#205 = DIRECTION ( 'NONE',  ( 0.0000000000000000000, 0.0000000000000000000, 1.000000000000000000 ) ) ;
#206 = APPROVAL_ROLE ( '' ) ;
#207 = ADVANCED_FACE ( 'NONE', ( #62, #139 ), #79, .T. ) ;
#208 = PERSON ( 'UNSPECIFIED', 'UNSPECIFIED', 'UNSPECIFIED', ('UNSPECIFIED'), ('UNSPECIFIED'), ('UNSPECIFIED') ) ;
#209 = DIRECTION ( 'NONE',  ( 3.491481338843133355E-15, -0.0000000000000000000, 1.000000000000000000 ) ) ;
#210 = EDGE_LOOP ( 'NONE', ( #36 ) ) ;
#211 = PERSON_AND_ORGANIZATION ( #208, #99 ) ;
#212 = LOCAL_TIME ( 8, 14, 14.00000000000000000, #17 ) ;
#213 = DIRECTION ( 'NONE',  ( 1.000000000000000000, 0.0000000000000000000, -3.373073425510458853E-15 ) ) ;
#214 = CARTESIAN_POINT ( 'NONE',  ( 3.142333204958818048E-15, 0.0000000000000000000, 0.8999999999999994671 ) ) ;
#215 = CYLINDRICAL_SURFACE ( 'NONE', #44, 1.499999999999996447 ) ;
#216 = AXIS2_PLACEMENT_3D ( 'NONE', #165, #205, #9 ) ;
#217 = CC_DESIGN_DATE_AND_TIME_ASSIGNMENT ( #227, #240, ( #120 ) ) ;
#218 = VERTEX_POINT ( 'NONE', #24 ) ;
#219 = CIRCLE ( 'NONE', #184, 1.499999999999996225 ) ;
#220 = DIRECTION ( 'NONE',  ( 1.000000000000000000, 0.0000000000000000000, -3.491481338843132961E-15 ) ) ;
#221 = DIRECTION ( 'NONE',  ( -3.491481338843133355E-15, 1.224646799147353207E-16, -1.000000000000000000 ) ) ;
#222 = PERSON_AND_ORGANIZATION ( #208, #99 ) ;
#223 = DESIGN_CONTEXT ( 'detailed design', #154, 'design' ) ;
#224 = CARTESIAN_POINT ( 'NONE',  ( 3.142333204958818836E-15, -1.301042606982608526E-16, 0.8999999999999996891 ) ) ;
#225 = PERSON_AND_ORGANIZATION ( #208, #99 ) ;
#226 = FACE_OUTER_BOUND ( 'NONE', #32, .T. ) ;
#227 = DATE_AND_TIME ( #144, #97 ) ;
#228 = DIRECTION ( 'NONE',  ( 3.491481338843133355E-15, -0.0000000000000000000, 1.000000000000000000 ) ) ;
#229 = FACE_BOUND ( 'NONE', #33, .T. ) ;
#230 = EDGE_CURVE ( 'NONE', #200, #200, #155, .T. ) ;
#231 = AXIS2_PLACEMENT_3D ( 'NONE', #129, #243, #75 ) ;
#232 = CALENDAR_DATE ( 2021, 10, 11 ) ;
#233 = DIRECTION ( 'NONE',  ( 3.491481338843133355E-15, -1.224646799147353207E-16, 1.000000000000000000 ) ) ;
#234 = EDGE_LOOP ( 'NONE', ( #103 ) ) ;
#235 = LOCAL_TIME ( 8, 14, 14.00000000000000000, #169 ) ;
#236 = PERSON_AND_ORGANIZATION_ROLE ( 'classification_officer' ) ;
#237 = ADVANCED_FACE ( 'NONE', ( #98 ), #78, .T. ) ;
#238 = PERSON_AND_ORGANIZATION_ROLE ( 'creator' ) ;
#239 = DIRECTION ( 'NONE',  ( 1.000000000000000000, 0.0000000000000000000, -3.491481338843133355E-15 ) ) ;
#240 = DATE_TIME_ROLE ( 'creation_date' ) ;
#241 = ORIENTED_EDGE ( 'NONE', *, *, #181, .T. ) ;
#242 = PERSON_AND_ORGANIZATION_ROLE ( 'design_supplier' ) ;
#243 = DIRECTION ( 'NONE',  ( -3.491481338843133355E-15, 1.224646799147353207E-16, -1.000000000000000000 ) ) ;
ENDSEC;
END-ISO-10303-21;
