ISO-10303-21;
HEADER;
FILE_DESCRIPTION (( 'STEP AP203' ),
    '1' );
FILE_NAME ('62536.step',
    '2021-10-15T09:33:58',
    ( '' ),
    ( '' ),
    'SwSTEP 2.0',
    'SolidWorks 2019',
    '' );
FILE_SCHEMA (( 'CONFIG_CONTROL_DESIGN' ));
ENDSEC;

DATA;
#1 = PERSON_AND_ORGANIZATION ( #34, #230 ) ;
#2 = EDGE_LOOP ( 'NONE', ( #83 ) ) ;
#3 = APPLICATION_PROTOCOL_DEFINITION ( 'international standard', 'config_control_design', 1994, #196 ) ;
#4 = DIRECTION ( 'NONE',  ( 4.930380657631324484E-30, -1.000000000000000000, 1.387778780781445873E-15 ) ) ;
#5 = ADVANCED_FACE ( 'NONE', ( #71 ), #151, .T. ) ;
#6 = FACE_OUTER_BOUND ( 'NONE', #249, .T. ) ;
#7 = FACE_OUTER_BOUND ( 'NONE', #248, .T. ) ;
#8 = CLOSED_SHELL ( 'NONE', ( #51, #106, #222, #76, #159, #242 ) ) ;
#9 = CYLINDRICAL_SURFACE ( 'NONE', #133, 4.249999999999961808 ) ;
#10 = MANIFOLD_SOLID_BREP ( 'Corps-Déplacer/Copier1[1]', #8 ) ;
#11 = CARTESIAN_POINT ( 'NONE',  ( -3.491481338843130200E-15, -1.224646799147353059E-15, -0.9999999999999991118 ) ) ;
#12 = DIRECTION ( 'NONE',  ( -4.305019875689118074E-30, 1.000000000000000000, -1.211755369248505698E-15 ) ) ;
#13 = AXIS2_PLACEMENT_3D ( 'NONE', #38, #33, #229 ) ;
#14 = CC_DESIGN_PERSON_AND_ORGANIZATION_ASSIGNMENT ( #145, #18, ( #134 ) ) ;
#15 = CIRCLE ( 'NONE', #198, 4.999999999999999112 ) ;
#16 = AXIS2_PLACEMENT_3D ( 'NONE', #177, #72, #161 ) ;
#17 = ORIENTED_EDGE ( 'NONE', *, *, #256, .F. ) ;
#18 = PERSON_AND_ORGANIZATION_ROLE ( 'creator' ) ;
#19 = CARTESIAN_POINT ( 'NONE',  ( 4.320703954838316901E-15, 3.399999999999999467, 1.237498796505078325 ) ) ;
#20 = LOCAL_TIME ( 11, 33, 58.00000000000000000, #85 ) ;
#21 = CARTESIAN_POINT ( 'NONE',  ( 5.898689479421307126E-15, 4.249999999999999112, 1.689451813417332415 ) ) ;
#22 = DIRECTION ( 'NONE',  ( -3.491481338843133355E-15, 1.224646799147353207E-16, -1.000000000000000000 ) ) ;
#23 = CARTESIAN_POINT ( 'NONE',  ( 1.965670409407889697E-13, 6.894643681119198933E-14, 56.29903810567678590 ) ) ;
#24 = CARTESIAN_POINT ( 'NONE',  ( 3.107418391570388560E-13, -1.089935651241144239E-14, 89.00000000000000000 ) ) ;
#25 = PERSON_AND_ORGANIZATION ( #34, #230 ) ;
#26 = DIRECTION ( 'NONE',  ( -3.491481338843133355E-15, 1.224646799147353207E-16, -1.000000000000000000 ) ) ;
#27 = CC_DESIGN_DATE_AND_TIME_ASSIGNMENT ( #217, #215, ( #104 ) ) ;
#28 = ORIENTED_EDGE ( 'NONE', *, *, #118, .F. ) ;
#29 = DIRECTION ( 'NONE',  ( -3.491481338843133355E-15, 1.224646799147353207E-16, -1.000000000000000000 ) ) ;
#30 = LOCAL_TIME ( 11, 33, 58.00000000000000000, #254 ) ;
#31 = ORIENTED_EDGE ( 'NONE', *, *, #118, .T. ) ;
#32 = ORIENTED_EDGE ( 'NONE', *, *, #203, .F. ) ;
#33 = DIRECTION ( 'NONE',  ( 0.0000000000000000000, 0.0000000000000000000, 1.000000000000000000 ) ) ;
#34 = PERSON ( 'UNSPECIFIED', 'UNSPECIFIED', 'UNSPECIFIED', ('UNSPECIFIED'), ('UNSPECIFIED'), ('UNSPECIFIED') ) ;
#35 = CARTESIAN_POINT ( 'NONE',  ( 1.745740669421566678E-13, 3.749399456654632525E-32, 50.00000000000000000 ) ) ;
#36 = EDGE_LOOP ( 'NONE', ( #165 ) ) ;
#37 = COORDINATED_UNIVERSAL_TIME_OFFSET ( 1, 0, .AHEAD. ) ;
#38 = CARTESIAN_POINT ( 'NONE',  ( 0.0000000000000000000, 0.0000000000000000000, 0.0000000000000000000 ) ) ;
#39 = DIRECTION ( 'NONE',  ( 3.491481338843133355E-15, 1.224646799147354045E-15, 1.000000000000000000 ) ) ;
#40 = DIRECTION ( 'NONE',  ( -3.491481338843133355E-15, -1.224646799147354045E-15, -1.000000000000000000 ) ) ;
#41 = FACE_OUTER_BOUND ( 'NONE', #61, .T. ) ;
#42 = PERSON_AND_ORGANIZATION_ROLE ( 'classification_officer' ) ;
#43 = APPROVAL ( #88, 'UNSPECIFIED' ) ;
#44 = FACE_OUTER_BOUND ( 'NONE', #57, .T. ) ;
#45 = SECURITY_CLASSIFICATION_LEVEL ( 'unclassified' ) ;
#46 = CYLINDRICAL_SURFACE ( 'NONE', #236, 4.249999999999961808 ) ;
#47 = CALENDAR_DATE ( 2021, 15, 10 ) ;
#48 = PRODUCT_DEFINITION_FORMATION_WITH_SPECIFIED_SOURCE ( 'ANY', '', #213, .NOT_KNOWN. ) ;
#49 = CONICAL_SURFACE ( 'NONE', #243, 4.249999999999998224, 1.082104136236486269 ) ;
#50 = PLANE ( 'NONE',  #220 ) ;
#51 = ADVANCED_FACE ( 'NONE', ( #240, #41 ), #131, .T. ) ;
#52 = PRODUCT_RELATED_PRODUCT_CATEGORY ( 'detail', '', ( #213 ) ) ;
#53 = APPROVAL_DATE_TIME ( #202, #208 ) ;
#54 = EDGE_LOOP ( 'NONE', ( #207 ) ) ;
#55 = AXIS2_PLACEMENT_3D ( 'NONE', #87, #171, #255 ) ;
#56 = CARTESIAN_POINT ( 'NONE',  ( 1.745740669421566678E-13, -4.249999999999900524, 50.00000000000000000 ) ) ;
#57 = EDGE_LOOP ( 'NONE', ( #64 ) ) ;
#58 = DATE_AND_TIME ( #150, #77 ) ;
#59 = ORIENTED_EDGE ( 'NONE', *, *, #75, .T. ) ;
#60 = APPROVAL_ROLE ( '' ) ;
#61 = EDGE_LOOP ( 'NONE', ( #59 ) ) ;
#62 = CIRCLE ( 'NONE', #16, 4.000000000000001776 ) ;
#63 = COORDINATED_UNIVERSAL_TIME_OFFSET ( 1, 0, .AHEAD. ) ;
#64 = ORIENTED_EDGE ( 'NONE', *, *, #115, .T. ) ;
#65 = DIRECTION ( 'NONE',  ( -3.491481338843133355E-15, 1.224646799147353207E-16, -1.000000000000000000 ) ) ;
#66 = PERSON_AND_ORGANIZATION ( #34, #230 ) ;
#67 = CC_DESIGN_SECURITY_CLASSIFICATION ( #104, ( #48 ) ) ;
#68 = APPROVAL ( #235, 'UNSPECIFIED' ) ;
#69 = AXIS2_PLACEMENT_3D ( 'NONE', #89, #169, #135 ) ;
#70 = ORIENTED_EDGE ( 'NONE', *, *, #115, .F. ) ;
#71 = FACE_OUTER_BOUND ( 'NONE', #233, .T. ) ;
#72 = DIRECTION ( 'NONE',  ( -3.491481338843133355E-15, 1.224646799147353207E-16, -1.000000000000000000 ) ) ;
#73 = CC_DESIGN_APPROVAL ( #208, ( #134 ) ) ;
#74 = AXIS2_PLACEMENT_3D ( 'NONE', #216, #130, #113 ) ;
#75 = EDGE_CURVE ( 'NONE', #263, #263, #92, .T. ) ;
#76 = ADVANCED_FACE ( 'NONE', ( #194, #6 ), #46, .T. ) ;
#77 = LOCAL_TIME ( 11, 33, 58.00000000000000000, #37 ) ;
#78 = EDGE_LOOP ( 'NONE', ( #146 ) ) ;
#79 = PLANE ( 'NONE',  #199 ) ;
#80 = AXIS2_PLACEMENT_3D ( 'NONE', #114, #22, #190 ) ;
#81 = VERTEX_POINT ( 'NONE', #251 ) ;
#82 = VERTEX_POINT ( 'NONE', #128 ) ;
#83 = ORIENTED_EDGE ( 'NONE', *, *, #144, .T. ) ;
#84 = APPLICATION_PROTOCOL_DEFINITION ( 'international standard', 'config_control_design', 1994, #244 ) ;
#85 = COORDINATED_UNIVERSAL_TIME_OFFSET ( 1, 0, .AHEAD. ) ;
#86 = CIRCLE ( 'NONE', #99, 4.249999999999961808 ) ;
#87 = CARTESIAN_POINT ( 'NONE',  ( 1.995907524770659691E-13, 7.000701204991673695E-14, 57.16506350946109194 ) ) ;
#88 = APPROVAL_STATUS ( 'not_yet_approved' ) ;
#89 = CARTESIAN_POINT ( 'NONE',  ( 1.920314736363723724E-13, 6.735557395310448295E-14, 55.00000000000000711 ) ) ;
#90 = CARTESIAN_POINT ( 'NONE',  ( 1.745740669421566678E-13, 6.123233995736771292E-14, 50.00000000000000000 ) ) ;
#91 = APPROVAL_DATE_TIME ( #172, #68 ) ;
#92 = CIRCLE ( 'NONE', #80, 5.000000000000000888 ) ;
#93 = CARTESIAN_POINT ( 'NONE',  ( 5.898689479421326058E-15, 2.068981755615235407E-15, 1.689451813417337522 ) ) ;
#94 = DIRECTION ( 'NONE',  ( -4.350335874380619004E-30, 1.000000000000000000, -1.224510688924816040E-15 ) ) ;
#95 = ADVANCED_FACE ( 'NONE', ( #176 ), #214, .T. ) ;
#96 = DIRECTION ( 'NONE',  ( -3.491481338843133355E-15, -1.224646799147354045E-15, -1.000000000000000000 ) ) ;
#97 = AXIS2_PLACEMENT_3D ( 'NONE', #260, #158, #253 ) ;
#98 = MANIFOLD_SOLID_BREP ( 'Corps-Déplacer/Copier1[2]', #261 ) ;
#99 = AXIS2_PLACEMENT_3D ( 'NONE', #152, #129, #164 ) ;
#100 = EDGE_LOOP ( 'NONE', ( #70 ) ) ;
#101 = DATE_TIME_ROLE ( 'creation_date' ) ;
#102 = EDGE_LOOP ( 'NONE', ( #250 ) ) ;
#103 = DIRECTION ( 'NONE',  ( -4.275831445896958607E-31, -1.000000000000000000, -1.224646799147353207E-16 ) ) ;
#104 = SECURITY_CLASSIFICATION ( '', '', #45 ) ;
#105 = VERTEX_POINT ( 'NONE', #247 ) ;
#106 = ADVANCED_FACE ( 'NONE', ( #234, #210 ), #127, .T. ) ;
#107 = PERSON_AND_ORGANIZATION ( #34, #230 ) ;
#108 = LOCAL_TIME ( 11, 33, 58.00000000000000000, #63 ) ;
#109 = DIRECTION ( 'NONE',  ( -4.350335874380582571E-30, 1.000000000000000000, -1.224510688924805785E-15 ) ) ;
#110 = PERSON_AND_ORGANIZATION ( #34, #230 ) ;
#111 = CC_DESIGN_PERSON_AND_ORGANIZATION_ASSIGNMENT ( #1, #209, ( #213 ) ) ;
#112 = CARTESIAN_POINT ( 'NONE',  ( 5.898689479421326058E-15, 2.068981755615235407E-15, 1.689451813417337522 ) ) ;
#113 = DIRECTION ( 'NONE',  ( -4.275831445896958607E-31, -1.000000000000000000, -1.224646799147353207E-16 ) ) ;
#114 = CARTESIAN_POINT ( 'NONE',  ( 3.072503578181957353E-13, -1.077689183249670724E-14, 88.00000000000000000 ) ) ;
#115 = EDGE_CURVE ( 'NONE', #181, #181, #211, .T. ) ;
#116 = DIRECTION ( 'NONE',  ( 4.350335874380581870E-30, -1.000000000000000000, 1.224510688924805588E-15 ) ) ;
#117 = CC_DESIGN_APPROVAL ( #43, ( #104 ) ) ;
#118 = EDGE_CURVE ( 'NONE', #204, #204, #142, .T. ) ;
#119 = UNCERTAINTY_MEASURE_WITH_UNIT (LENGTH_MEASURE( 1.000000000000000082E-05 ), #182, 'distance_accuracy_value', 'NONE');
#120 = APPROVAL_PERSON_ORGANIZATION ( #107, #208, #60 ) ;
#121 = CONICAL_SURFACE ( 'NONE', #55, 5.499999999999922728, 0.5235987755982998149 ) ;
#122 = EDGE_LOOP ( 'NONE', ( #31 ) ) ;
#123 = CALENDAR_DATE ( 2021, 15, 10 ) ;
#124 = EDGE_LOOP ( 'NONE', ( #28 ) ) ;
#125 = MECHANICAL_CONTEXT ( 'NONE', #196, 'mechanical' ) ;
#126 = VERTEX_POINT ( 'NONE', #56 ) ;
#127 = CONICAL_SURFACE ( 'NONE', #218, 4.000000000000001776, 0.7853981633974473908 ) ;
#128 = CARTESIAN_POINT ( 'NONE',  ( 3.107418391570388560E-13, 3.999999999999990674, 89.00000000000000000 ) ) ;
#129 = DIRECTION ( 'NONE',  ( -3.491481338843133355E-15, 1.224646799147353207E-16, -1.000000000000000000 ) ) ;
#130 = DIRECTION ( 'NONE',  ( 3.491481338843133355E-15, -1.224646799147353207E-16, 1.000000000000000000 ) ) ;
#131 = CYLINDRICAL_SURFACE ( 'NONE', #97, 4.999999999999999112 ) ;
#132 = CALENDAR_DATE ( 2021, 15, 10 ) ;
#133 = AXIS2_PLACEMENT_3D ( 'NONE', #257, #239, #258 ) ;
#134 = PRODUCT_DEFINITION ( 'UNKNOWN', '', #48, #245 ) ;
#135 = DIRECTION ( 'NONE',  ( -5.800447832507541752E-30, 1.000000000000000000, -1.632680918566435389E-15 ) ) ;
#136 = PERSON_AND_ORGANIZATION ( #34, #230 ) ;
#137 = FACE_BOUND ( 'NONE', #200, .T. ) ;
#138 = APPROVAL_ROLE ( '' ) ;
#139 = CARTESIAN_POINT ( 'NONE',  ( 4.320703954838331889E-15, 1.515498940088652058E-15, 1.237498796505082543 ) ) ;
#140 = LOCAL_TIME ( 11, 33, 58.00000000000000000, #238 ) ;
#141 = DATE_AND_TIME ( #132, #30 ) ;
#142 = CIRCLE ( 'NONE', #69, 4.249999999999925393 ) ;
#143 = CARTESIAN_POINT ( 'NONE',  ( 3.107418391570388560E-13, 2.999519565323699889E-32, 89.00000000000000000 ) ) ;
#144 = EDGE_CURVE ( 'NONE', #105, #105, #15, .T. ) ;
#145 = PERSON_AND_ORGANIZATION ( #34, #230 ) ;
#146 = ORIENTED_EDGE ( 'NONE', *, *, #256, .T. ) ;
#147 =( NAMED_UNIT ( * ) SI_UNIT ( $, .STERADIAN. ) SOLID_ANGLE_UNIT ( ) );
#148 = ORIENTED_EDGE ( 'NONE', *, *, #197, .F. ) ;
#149 = CARTESIAN_POINT ( 'NONE',  ( 1.920314736363723472E-13, 4.249999999999993783, 55.00000000000000000 ) ) ;
#150 = CALENDAR_DATE ( 2021, 15, 10 ) ;
#151 = CONICAL_SURFACE ( 'NONE', #206, 3.399999999999998135, 1.221730476396031939 ) ;
#152 = CARTESIAN_POINT ( 'NONE',  ( 1.745740669421566678E-13, 6.123233995736771292E-14, 50.00000000000000000 ) ) ;
#153 = ORIENTED_EDGE ( 'NONE', *, *, #197, .T. ) ;
#154 = PERSON_AND_ORGANIZATION_ROLE ( 'creator' ) ;
#155 = DIRECTION ( 'NONE',  ( 0.0000000000000000000, 1.000000000000000000, 0.0000000000000000000 ) ) ;
#156 = CC_DESIGN_PERSON_AND_ORGANIZATION_ASSIGNMENT ( #136, #42, ( #104 ) ) ;
#157 = DIRECTION ( 'NONE',  ( 0.0000000000000000000, -1.000000000000000000, 0.0000000000000000000 ) ) ;
#158 = DIRECTION ( 'NONE',  ( -3.491481338843133355E-15, 1.224646799147353207E-16, -1.000000000000000000 ) ) ;
#159 = ADVANCED_FACE ( 'NONE', ( #187, #7 ), #121, .T. ) ;
#160 = DIRECTION ( 'NONE',  ( 3.491481338843133355E-15, 1.224646799147354045E-15, 1.000000000000000000 ) ) ;
#161 = DIRECTION ( 'NONE',  ( 0.0000000000000000000, 1.000000000000000000, 0.0000000000000000000 ) ) ;
#162 = EDGE_CURVE ( 'NONE', #126, #126, #225, .T. ) ;
#163 = EDGE_LOOP ( 'NONE', ( #32 ) ) ;
#164 = DIRECTION ( 'NONE',  ( 0.0000000000000000000, -1.000000000000000000, 0.0000000000000000000 ) ) ;
#165 = ORIENTED_EDGE ( 'NONE', *, *, #162, .T. ) ;
#166 =( NAMED_UNIT ( * ) PLANE_ANGLE_UNIT ( ) SI_UNIT ( $, .RADIAN. ) );
#167 = CARTESIAN_POINT ( 'NONE',  ( 3.072503578181957353E-13, 4.999999999999990230, 88.00000000000000000 ) ) ;
#168 = AXIS2_PLACEMENT_3D ( 'NONE', #195, #96, #12 ) ;
#169 = DIRECTION ( 'NONE',  ( -3.491481338843133355E-15, -1.224646799147354045E-15, -1.000000000000000000 ) ) ;
#170 = APPROVAL_ROLE ( '' ) ;
#171 = DIRECTION ( 'NONE',  ( 3.491481338843133355E-15, 1.224646799147354045E-15, 1.000000000000000000 ) ) ;
#172 = DATE_AND_TIME ( #47, #140 ) ;
#173 = FACE_OUTER_BOUND ( 'NONE', #100, .T. ) ;
#174 = PERSON_AND_ORGANIZATION ( #34, #230 ) ;
#175 = CALENDAR_DATE ( 2021, 15, 10 ) ;
#176 = FACE_OUTER_BOUND ( 'NONE', #228, .T. ) ;
#177 = CARTESIAN_POINT ( 'NONE',  ( 3.107418391570388560E-13, -1.089935651241144239E-14, 89.00000000000000000 ) ) ;
#178 = AXIS2_PLACEMENT_3D ( 'NONE', #90, #65, #157 ) ;
#179 = CC_DESIGN_PERSON_AND_ORGANIZATION_ASSIGNMENT ( #25, #154, ( #48 ) ) ;
#180 = CIRCLE ( 'NONE', #168, 3.399999999999998135 ) ;
#181 = VERTEX_POINT ( 'NONE', #21 ) ;
#182 =( LENGTH_UNIT ( ) NAMED_UNIT ( * ) SI_UNIT ( .MILLI., .METRE. ) );
#183 = ADVANCED_FACE ( 'NONE', ( #193, #173 ), #9, .T. ) ;
#184 = ADVANCED_FACE ( 'NONE', ( #137, #44 ), #49, .T. ) ;
#185 =( GEOMETRIC_REPRESENTATION_CONTEXT ( 3 ) GLOBAL_UNCERTAINTY_ASSIGNED_CONTEXT ( ( #119 ) ) GLOBAL_UNIT_ASSIGNED_CONTEXT ( ( #182, #166, #147 ) ) REPRESENTATION_CONTEXT ( 'NONE', 'WORKASPACE' ) );
#186 = DIRECTION ( 'NONE',  ( 3.491481338843133355E-15, 1.224646799147354045E-15, 1.000000000000000000 ) ) ;
#187 = FACE_BOUND ( 'NONE', #124, .T. ) ;
#188 = APPROVAL_DATE_TIME ( #141, #43 ) ;
#189 = PRODUCT_DEFINITION_SHAPE ( 'NONE', 'NONE',  #134 ) ;
#190 = DIRECTION ( 'NONE',  ( 0.0000000000000000000, 1.000000000000000000, 0.0000000000000000000 ) ) ;
#191 = ADVANCED_BREP_SHAPE_REPRESENTATION ( '62536', ( #10, #98, #13 ), #185 ) ;
#192 = APPROVAL_PERSON_ORGANIZATION ( #174, #43, #170 ) ;
#193 = FACE_OUTER_BOUND ( 'NONE', #36, .T. ) ;
#194 = FACE_OUTER_BOUND ( 'NONE', #122, .T. ) ;
#195 = CARTESIAN_POINT ( 'NONE',  ( 4.320703954838331889E-15, 1.515498940088652058E-15, 1.237498796505082543 ) ) ;
#196 = APPLICATION_CONTEXT ( 'configuration controlled 3d designs of mechanical parts and assemblies' ) ;
#197 = EDGE_CURVE ( 'NONE', #224, #224, #180, .T. ) ;
#198 = AXIS2_PLACEMENT_3D ( 'NONE', #23, #186, #4 ) ;
#199 = AXIS2_PLACEMENT_3D ( 'NONE', #35, #262, #103 ) ;
#200 = EDGE_LOOP ( 'NONE', ( #148 ) ) ;
#201 = APPROVAL_STATUS ( 'not_yet_approved' ) ;
#202 = DATE_AND_TIME ( #123, #20 ) ;
#203 = EDGE_CURVE ( 'NONE', #82, #82, #62, .T. ) ;
#204 = VERTEX_POINT ( 'NONE', #149 ) ;
#205 = CC_DESIGN_APPROVAL ( #68, ( #48 ) ) ;
#206 = AXIS2_PLACEMENT_3D ( 'NONE', #139, #39, #237 ) ;
#207 = ORIENTED_EDGE ( 'NONE', *, *, #203, .T. ) ;
#208 = APPROVAL ( #201, 'UNSPECIFIED' ) ;
#209 = PERSON_AND_ORGANIZATION_ROLE ( 'design_owner' ) ;
#210 = FACE_BOUND ( 'NONE', #54, .T. ) ;
#211 = CIRCLE ( 'NONE', #252, 4.249999999999997335 ) ;
#212 = DIRECTION ( 'NONE',  ( -3.491481338843133355E-15, -1.224646799147354045E-15, -1.000000000000000000 ) ) ;
#213 = PRODUCT ( '62536', '62536', '', ( #125 ) ) ;
#214 = PLANE ( 'NONE',  #74 ) ;
#215 = DATE_TIME_ROLE ( 'classification_date' ) ;
#216 = CARTESIAN_POINT ( 'NONE',  ( 1.745740669421566678E-13, 3.749399456654632525E-32, 50.00000000000000000 ) ) ;
#217 = DATE_AND_TIME ( #175, #108 ) ;
#218 = AXIS2_PLACEMENT_3D ( 'NONE', #24, #26, #155 ) ;
#219 = SHAPE_DEFINITION_REPRESENTATION ( #189, #191 ) ;
#220 = AXIS2_PLACEMENT_3D ( 'NONE', #143, #29, #221 ) ;
#221 = DIRECTION ( 'NONE',  ( 4.275831445896958607E-31, 1.000000000000000000, 1.224646799147353207E-16 ) ) ;
#222 = ADVANCED_FACE ( 'NONE', ( #241 ), #50, .F. ) ;
#223 = APPROVAL_PERSON_ORGANIZATION ( #110, #68, #138 ) ;
#224 = VERTEX_POINT ( 'NONE', #19 ) ;
#225 = CIRCLE ( 'NONE', #178, 4.249999999999961808 ) ;
#226 = ORIENTED_EDGE ( 'NONE', *, *, #162, .F. ) ;
#227 = CC_DESIGN_PERSON_AND_ORGANIZATION_ASSIGNMENT ( #66, #259, ( #48 ) ) ;
#228 = EDGE_LOOP ( 'NONE', ( #226 ) ) ;
#229 = DIRECTION ( 'NONE',  ( 1.000000000000000000, 0.0000000000000000000, 0.0000000000000000000 ) ) ;
#230 = ORGANIZATION ( 'UNSPECIFIED', 'UNSPECIFIED', '' ) ;
#231 = CC_DESIGN_DATE_AND_TIME_ASSIGNMENT ( #58, #101, ( #134 ) ) ;
#232 = FACE_OUTER_BOUND ( 'NONE', #78, .T. ) ;
#233 = EDGE_LOOP ( 'NONE', ( #153 ) ) ;
#234 = FACE_OUTER_BOUND ( 'NONE', #102, .T. ) ;
#235 = APPROVAL_STATUS ( 'not_yet_approved' ) ;
#236 = AXIS2_PLACEMENT_3D ( 'NONE', #11, #40, #94 ) ;
#237 = DIRECTION ( 'NONE',  ( 4.305019875689118074E-30, -1.000000000000000000, 1.211755369248505698E-15 ) ) ;
#238 = COORDINATED_UNIVERSAL_TIME_OFFSET ( 1, 0, .AHEAD. ) ;
#239 = DIRECTION ( 'NONE',  ( -3.491481338843133355E-15, -1.224646799147354045E-15, -1.000000000000000000 ) ) ;
#240 = FACE_OUTER_BOUND ( 'NONE', #2, .T. ) ;
#241 = FACE_OUTER_BOUND ( 'NONE', #163, .T. ) ;
#242 = ADVANCED_FACE ( 'NONE', ( #232 ), #79, .F. ) ;
#243 = AXIS2_PLACEMENT_3D ( 'NONE', #93, #160, #116 ) ;
#244 = APPLICATION_CONTEXT ( 'configuration controlled 3d designs of mechanical parts and assemblies' ) ;
#245 = DESIGN_CONTEXT ( 'detailed design', #244, 'design' ) ;
#246 = ORIENTED_EDGE ( 'NONE', *, *, #144, .F. ) ;
#247 = CARTESIAN_POINT ( 'NONE',  ( 1.965670409407889949E-13, -4.999999999999930722, 56.29903810567679301 ) ) ;
#248 = EDGE_LOOP ( 'NONE', ( #246 ) ) ;
#249 = EDGE_LOOP ( 'NONE', ( #17 ) ) ;
#250 = ORIENTED_EDGE ( 'NONE', *, *, #75, .F. ) ;
#251 = CARTESIAN_POINT ( 'NONE',  ( 1.745740669421566678E-13, -4.249999999999900524, 50.00000000000000000 ) ) ;
#252 = AXIS2_PLACEMENT_3D ( 'NONE', #112, #212, #109 ) ;
#253 = DIRECTION ( 'NONE',  ( 4.275831445896958607E-31, 1.000000000000000000, 1.224646799147353207E-16 ) ) ;
#254 = COORDINATED_UNIVERSAL_TIME_OFFSET ( 1, 0, .AHEAD. ) ;
#255 = DIRECTION ( 'NONE',  ( 4.482164234210357280E-30, -1.000000000000000000, 1.261617073437695600E-15 ) ) ;
#256 = EDGE_CURVE ( 'NONE', #81, #81, #86, .T. ) ;
#257 = CARTESIAN_POINT ( 'NONE',  ( -3.491481338843130200E-15, -1.224646799147353059E-15, -0.9999999999999991118 ) ) ;
#258 = DIRECTION ( 'NONE',  ( -4.350335874380619004E-30, 1.000000000000000000, -1.224510688924816040E-15 ) ) ;
#259 = PERSON_AND_ORGANIZATION_ROLE ( 'design_supplier' ) ;
#260 = CARTESIAN_POINT ( 'NONE',  ( 0.0000000000000000000, 0.0000000000000000000, 0.0000000000000000000 ) ) ;
#261 = CLOSED_SHELL ( 'NONE', ( #95, #5, #184, #183 ) ) ;
#262 = DIRECTION ( 'NONE',  ( 3.491481338843133355E-15, -1.224646799147353207E-16, 1.000000000000000000 ) ) ;
#263 = VERTEX_POINT ( 'NONE', #167 ) ;
ENDSEC;
END-ISO-10303-21;
