ISO-10303-21;
HEADER;
FILE_DESCRIPTION (( 'STEP AP203' ),
    '1' );
FILE_NAME ('62535.step',
    '2021-10-15T09:33:58',
    ( '' ),
    ( '' ),
    'SwSTEP 2.0',
    'SolidWorks 2019',
    '' );
FILE_SCHEMA (( 'CONFIG_CONTROL_DESIGN' ));
ENDSEC;

DATA;
#1 = CONICAL_SURFACE ( 'NONE', #85, 3.200000000000001510, 0.7853981633974428389 ) ;
#2 = APPROVAL ( #174, 'UNSPECIFIED' ) ;
#3 = PERSON_AND_ORGANIZATION_ROLE ( 'creator' ) ;
#4 = ORIENTED_EDGE ( 'NONE', *, *, #240, .F. ) ;
#5 = ORIENTED_EDGE ( 'NONE', *, *, #132, .F. ) ;
#6 = EDGE_LOOP ( 'NONE', ( #212 ) ) ;
#7 = CALENDAR_DATE ( 2021, 15, 10 ) ;
#8 = LOCAL_TIME ( 11, 33, 58.00000000000000000, #178 ) ;
#9 = CC_DESIGN_PERSON_AND_ORGANIZATION_ASSIGNMENT ( #93, #3, ( #153 ) ) ;
#10 = DIRECTION ( 'NONE',  ( 3.491481338843133355E-15, 1.224646799147354045E-15, 1.000000000000000000 ) ) ;
#11 = FACE_BOUND ( 'NONE', #113, .T. ) ;
#12 = FACE_OUTER_BOUND ( 'NONE', #45, .T. ) ;
#13 = AXIS2_PLACEMENT_3D ( 'NONE', #100, #14, #222 ) ;
#14 = DIRECTION ( 'NONE',  ( -3.491481338843133355E-15, -1.224646799147354045E-15, -1.000000000000000000 ) ) ;
#15 = AXIS2_PLACEMENT_3D ( 'NONE', #244, #186, #142 ) ;
#16 = CARTESIAN_POINT ( 'NONE',  ( 2.758270257686075477E-13, -9.674709713264090904E-15, 79.00000000000000000 ) ) ;
#17 = APPROVAL_DATE_TIME ( #83, #2 ) ;
#18 = EDGE_CURVE ( 'NONE', #146, #146, #205, .T. ) ;
#19 = EDGE_LOOP ( 'NONE', ( #5 ) ) ;
#20 = PERSON_AND_ORGANIZATION ( #108, #183 ) ;
#21 = CC_DESIGN_APPROVAL ( #27, ( #196 ) ) ;
#22 = PERSON_AND_ORGANIZATION ( #108, #183 ) ;
#23 = APPLICATION_CONTEXT ( 'configuration controlled 3d designs of mechanical parts and assemblies' ) ;
#24 = DATE_AND_TIME ( #112, #72 ) ;
#25 = ORIENTED_EDGE ( 'NONE', *, *, #149, .T. ) ;
#26 = DATE_AND_TIME ( #171, #33 ) ;
#27 = APPROVAL ( #91, 'UNSPECIFIED' ) ;
#28 = AXIS2_PLACEMENT_3D ( 'NONE', #78, #163, #241 ) ;
#29 = FACE_OUTER_BOUND ( 'NONE', #65, .T. ) ;
#30 = AXIS2_PLACEMENT_3D ( 'NONE', #234, #180, #94 ) ;
#31 =( NAMED_UNIT ( * ) PLANE_ANGLE_UNIT ( ) SI_UNIT ( $, .RADIAN. ) );
#32 = CC_DESIGN_APPROVAL ( #77, ( #153 ) ) ;
#33 = LOCAL_TIME ( 11, 33, 58.00000000000000000, #248 ) ;
#34 = FACE_OUTER_BOUND ( 'NONE', #154, .T. ) ;
#35 = CARTESIAN_POINT ( 'NONE',  ( 2.730338406975330410E-13, -9.576737969332300892E-15, 78.19999999999998863 ) ) ;
#36 = DIRECTION ( 'NONE',  ( 5.478200730701546697E-30, -1.000000000000000000, 1.541976423090516538E-15 ) ) ;
#37 = PRODUCT_RELATED_PRODUCT_CATEGORY ( 'detail', '', ( #87 ) ) ;
#38 = CIRCLE ( 'NONE', #122, 4.000000000000000000 ) ;
#39 = CARTESIAN_POINT ( 'NONE',  ( 3.462917140274837557E-15, 1.214627826982816257E-15, 0.9918188883753964458 ) ) ;
#40 = APPLICATION_PROTOCOL_DEFINITION ( 'international standard', 'config_control_design', 1994, #23 ) ;
#41 = CARTESIAN_POINT ( 'NONE',  ( 4.716023292149553534E-15, 3.399999999999999467, 1.350722754746889187 ) ) ;
#42 = PLANE ( 'NONE',  #76 ) ;
#43 = SECURITY_CLASSIFICATION ( '', '', #227 ) ;
#44 = VERTEX_POINT ( 'NONE', #81 ) ;
#45 = EDGE_LOOP ( 'NONE', ( #194 ) ) ;
#46 = DATE_TIME_ROLE ( 'creation_date' ) ;
#47 = ADVANCED_FACE ( 'NONE', ( #251 ), #71, .F. ) ;
#48 = EDGE_LOOP ( 'NONE', ( #232 ) ) ;
#49 = DIRECTION ( 'NONE',  ( 0.0000000000000000000, 0.0000000000000000000, 1.000000000000000000 ) ) ;
#50 = APPROVAL_DATE_TIME ( #24, #77 ) ;
#51 = PERSON_AND_ORGANIZATION ( #108, #183 ) ;
#52 = CIRCLE ( 'NONE', #104, 3.399999999999997691 ) ;
#53 = CC_DESIGN_DATE_AND_TIME_ASSIGNMENT ( #26, #245, ( #43 ) ) ;
#54 = CIRCLE ( 'NONE', #260, 2.724999999999998312 ) ;
#55 = VERTEX_POINT ( 'NONE', #208 ) ;
#56 = CYLINDRICAL_SURFACE ( 'NONE', #28, 3.399999999999967937 ) ;
#57 = EDGE_CURVE ( 'NONE', #219, #219, #54, .T. ) ;
#58 = MANIFOLD_SOLID_BREP ( 'Corps-Déplacer/Copier1[2]', #130 ) ;
#59 = CARTESIAN_POINT ( 'NONE',  ( 1.637688256277514222E-13, 5.744237148682574357E-14, 46.90525588832577597 ) ) ;
#60 = CC_DESIGN_PERSON_AND_ORGANIZATION_ASSIGNMENT ( #115, #118, ( #153 ) ) ;
#61 = DIRECTION ( 'NONE',  ( 4.275831445896958607E-31, 1.000000000000000000, 1.224646799147353207E-16 ) ) ;
#62 = AXIS2_PLACEMENT_3D ( 'NONE', #123, #10, #95 ) ;
#63 = COORDINATED_UNIVERSAL_TIME_OFFSET ( 1, 0, .AHEAD. ) ;
#64 = EDGE_CURVE ( 'NONE', #55, #55, #160, .T. ) ;
#65 = EDGE_LOOP ( 'NONE', ( #150 ) ) ;
#66 = COORDINATED_UNIVERSAL_TIME_OFFSET ( 1, 0, .AHEAD. ) ;
#67 = CC_DESIGN_APPROVAL ( #2, ( #43 ) ) ;
#68 = ADVANCED_FACE ( 'NONE', ( #220, #221 ), #102, .T. ) ;
#69 = ORIENTED_EDGE ( 'NONE', *, *, #179, .T. ) ;
#70 = APPROVAL_ROLE ( '' ) ;
#71 = PLANE ( 'NONE',  #120 ) ;
#72 = LOCAL_TIME ( 11, 33, 58.00000000000000000, #66 ) ;
#73 = FACE_BOUND ( 'NONE', #198, .T. ) ;
#74 = DIRECTION ( 'NONE',  ( 3.491481338843133355E-15, 1.224646799147354045E-15, 1.000000000000000000 ) ) ;
#75 = DIRECTION ( 'NONE',  ( -4.275831445896958607E-31, -1.000000000000000000, -1.224646799147353207E-16 ) ) ;
#76 = AXIS2_PLACEMENT_3D ( 'NONE', #147, #84, #201 ) ;
#77 = APPROVAL ( #247, 'UNSPECIFIED' ) ;
#78 = CARTESIAN_POINT ( 'NONE',  ( -3.491481338843130200E-15, -1.224646799147353059E-15, -0.9999999999999991118 ) ) ;
#79 =( NAMED_UNIT ( * ) SI_UNIT ( $, .STERADIAN. ) SOLID_ANGLE_UNIT ( ) );
#80 = AXIS2_PLACEMENT_3D ( 'NONE', #249, #197, #216 ) ;
#81 = CARTESIAN_POINT ( 'NONE',  ( 1.571166602479409884E-13, 3.399999999999994138, 45.00000000000000000 ) ) ;
#82 = EDGE_LOOP ( 'NONE', ( #148 ) ) ;
#83 = DATE_AND_TIME ( #262, #223 ) ;
#84 = DIRECTION ( 'NONE',  ( -3.491481338843133355E-15, 1.224646799147353207E-16, -1.000000000000000000 ) ) ;
#85 = AXIS2_PLACEMENT_3D ( 'NONE', #16, #238, #141 ) ;
#86 = PERSON_AND_ORGANIZATION_ROLE ( 'creator' ) ;
#87 = PRODUCT ( '62535', '62535', '', ( #133 ) ) ;
#88 = ORIENTED_EDGE ( 'NONE', *, *, #57, .T. ) ;
#89 = APPROVAL_ROLE ( '' ) ;
#90 = EDGE_LOOP ( 'NONE', ( #69 ) ) ;
#91 = APPROVAL_STATUS ( 'not_yet_approved' ) ;
#92 = ORIENTED_EDGE ( 'NONE', *, *, #179, .F. ) ;
#93 = PERSON_AND_ORGANIZATION ( #108, #183 ) ;
#94 = DIRECTION ( 'NONE',  ( 0.0000000000000000000, -1.000000000000000000, 0.0000000000000000000 ) ) ;
#95 = DIRECTION ( 'NONE',  ( 4.240579694063641102E-30, -1.000000000000000000, 1.193617070626244125E-15 ) ) ;
#96 = ADVANCED_FACE ( 'NONE', ( #12 ), #243, .T. ) ;
#97 = DIRECTION ( 'NONE',  ( -3.491481338843133355E-15, 1.224646799147353207E-16, -1.000000000000000000 ) ) ;
#98 = AXIS2_PLACEMENT_3D ( 'NONE', #35, #204, #254 ) ;
#99 = DIRECTION ( 'NONE',  ( 0.0000000000000000000, 1.000000000000000000, 0.0000000000000000000 ) ) ;
#100 = CARTESIAN_POINT ( 'NONE',  ( -3.491481338843130200E-15, -1.224646799147353059E-15, -0.9999999999999991118 ) ) ;
#101 = CC_DESIGN_PERSON_AND_ORGANIZATION_ASSIGNMENT ( #22, #195, ( #43 ) ) ;
#102 = CYLINDRICAL_SURFACE ( 'NONE', #13, 3.399999999999967937 ) ;
#103 = UNCERTAINTY_MEASURE_WITH_UNIT (LENGTH_MEASURE( 1.000000000000000082E-05 ), #106, 'distance_accuracy_value', 'NONE');
#104 = AXIS2_PLACEMENT_3D ( 'NONE', #184, #185, #127 ) ;
#105 = VERTEX_POINT ( 'NONE', #131 ) ;
#106 =( LENGTH_UNIT ( ) NAMED_UNIT ( * ) SI_UNIT ( .MILLI., .METRE. ) );
#107 = ADVANCED_FACE ( 'NONE', ( #11, #258 ), #136, .T. ) ;
#108 = PERSON ( 'UNSPECIFIED', 'UNSPECIFIED', 'UNSPECIFIED', ('UNSPECIFIED'), ('UNSPECIFIED'), ('UNSPECIFIED') ) ;
#109 = PERSON_AND_ORGANIZATION_ROLE ( 'design_owner' ) ;
#110 = ORIENTED_EDGE ( 'NONE', *, *, #18, .T. ) ;
#111 = CONICAL_SURFACE ( 'NONE', #15, 3.399999999999997691, 1.082104136236485381 ) ;
#112 = CALENDAR_DATE ( 2021, 15, 10 ) ;
#113 = EDGE_LOOP ( 'NONE', ( #92 ) ) ;
#114 = EDGE_CURVE ( 'NONE', #261, #261, #52, .T. ) ;
#115 = PERSON_AND_ORGANIZATION ( #108, #183 ) ;
#116 = EDGE_LOOP ( 'NONE', ( #110 ) ) ;
#117 = APPLICATION_CONTEXT ( 'configuration controlled 3d designs of mechanical parts and assemblies' ) ;
#118 = PERSON_AND_ORGANIZATION_ROLE ( 'design_supplier' ) ;
#119 = EDGE_LOOP ( 'NONE', ( #88 ) ) ;
#120 = AXIS2_PLACEMENT_3D ( 'NONE', #157, #235, #143 ) ;
#121 = CLOSED_SHELL ( 'NONE', ( #246, #236, #167, #68, #107, #47 ) ) ;
#122 = AXIS2_PLACEMENT_3D ( 'NONE', #125, #74, #224 ) ;
#123 = CARTESIAN_POINT ( 'NONE',  ( 3.462917140274837557E-15, 1.214627826982816257E-15, 0.9918188883753964458 ) ) ;
#124 = ADVANCED_FACE ( 'NONE', ( #256 ), #202, .T. ) ;
#125 = CARTESIAN_POINT ( 'NONE',  ( 1.607451140914743470E-13, 5.638179624810095178E-14, 46.03923048454144151 ) ) ;
#126 = LOCAL_TIME ( 11, 33, 58.00000000000000000, #263 ) ;
#127 = DIRECTION ( 'NONE',  ( -4.305019875689118074E-30, 1.000000000000000000, -1.211755369248505698E-15 ) ) ;
#128 = DIRECTION ( 'NONE',  ( 0.0000000000000000000, -1.000000000000000000, 0.0000000000000000000 ) ) ;
#129 = CARTESIAN_POINT ( 'NONE',  ( 2.758270257686075477E-13, 3.199999999999991740, 79.00000000000000000 ) ) ;
#130 = CLOSED_SHELL ( 'NONE', ( #96, #124, #200, #155 ) ) ;
#131 = CARTESIAN_POINT ( 'NONE',  ( 1.607451140914743722E-13, -3.999999999999943601, 46.03923048454144862 ) ) ;
#132 = EDGE_CURVE ( 'NONE', #226, #226, #156, .T. ) ;
#133 = MECHANICAL_CONTEXT ( 'NONE', #23, 'mechanical' ) ;
#134 = CC_DESIGN_DATE_AND_TIME_ASSIGNMENT ( #191, #46, ( #196 ) ) ;
#135 = EDGE_LOOP ( 'NONE', ( #172 ) ) ;
#136 = CONICAL_SURFACE ( 'NONE', #170, 4.499999999999937828, 0.5235987755982975944 ) ;
#137 = PERSON_AND_ORGANIZATION ( #108, #183 ) ;
#138 = APPROVAL_DATE_TIME ( #177, #27 ) ;
#139 = AXIS2_PLACEMENT_3D ( 'NONE', #159, #97, #99 ) ;
#140 = MANIFOLD_SOLID_BREP ( 'Corps-Déplacer/Copier1[1]', #121 ) ;
#141 = DIRECTION ( 'NONE',  ( 0.0000000000000000000, 1.000000000000000000, 0.0000000000000000000 ) ) ;
#142 = DIRECTION ( 'NONE',  ( 4.305019875689118074E-30, -1.000000000000000000, 1.211755369248505698E-15 ) ) ;
#143 = DIRECTION ( 'NONE',  ( -4.275831445896958607E-31, -1.000000000000000000, -1.224646799147353207E-16 ) ) ;
#144 = DIRECTION ( 'NONE',  ( -4.240579694063641102E-30, 1.000000000000000000, -1.193617070626244125E-15 ) ) ;
#145 = FACE_OUTER_BOUND ( 'NONE', #19, .T. ) ;
#146 = VERTEX_POINT ( 'NONE', #166 ) ;
#147 = CARTESIAN_POINT ( 'NONE',  ( 2.758270257686075477E-13, 2.399615652258959035E-32, 79.00000000000000000 ) ) ;
#148 = ORIENTED_EDGE ( 'NONE', *, *, #57, .F. ) ;
#149 = EDGE_CURVE ( 'NONE', #168, #168, #152, .T. ) ;
#150 = ORIENTED_EDGE ( 'NONE', *, *, #114, .T. ) ;
#151 = AXIS2_PLACEMENT_3D ( 'NONE', #206, #164, #128 ) ;
#152 = CIRCLE ( 'NONE', #139, 3.200000000000001510 ) ;
#153 = PRODUCT_DEFINITION_FORMATION_WITH_SPECIFIED_SOURCE ( 'ANY', '', #87, .NOT_KNOWN. ) ;
#154 = EDGE_LOOP ( 'NONE', ( #176 ) ) ;
#155 = ADVANCED_FACE ( 'NONE', ( #255, #162 ), #56, .T. ) ;
#156 = CIRCLE ( 'NONE', #98, 4.000000000000001776 ) ;
#157 = CARTESIAN_POINT ( 'NONE',  ( 1.396592535537253342E-13, 2.999519565323705910E-32, 40.00000000000000000 ) ) ;
#158 = DIRECTION ( 'NONE',  ( -3.491481338843133355E-15, 1.224646799147353207E-16, -1.000000000000000000 ) ) ;
#159 = CARTESIAN_POINT ( 'NONE',  ( 2.758270257686075477E-13, -9.674709713264090904E-15, 79.00000000000000000 ) ) ;
#160 = CIRCLE ( 'NONE', #151, 3.399999999999967937 ) ;
#161 =( GEOMETRIC_REPRESENTATION_CONTEXT ( 3 ) GLOBAL_UNCERTAINTY_ASSIGNED_CONTEXT ( ( #103 ) ) GLOBAL_UNIT_ASSIGNED_CONTEXT ( ( #106, #31, #79 ) ) REPRESENTATION_CONTEXT ( 'NONE', 'WORKASPACE' ) );
#162 = FACE_OUTER_BOUND ( 'NONE', #230, .T. ) ;
#163 = DIRECTION ( 'NONE',  ( -3.491481338843133355E-15, -1.224646799147354045E-15, -1.000000000000000000 ) ) ;
#164 = DIRECTION ( 'NONE',  ( -3.491481338843133355E-15, 1.224646799147353207E-16, -1.000000000000000000 ) ) ;
#165 = AXIS2_PLACEMENT_3D ( 'NONE', #225, #158, #61 ) ;
#166 = CARTESIAN_POINT ( 'NONE',  ( 1.396592535537253342E-13, -3.399999999999919087, 40.00000000000000000 ) ) ;
#167 = ADVANCED_FACE ( 'NONE', ( #175 ), #42, .F. ) ;
#168 = VERTEX_POINT ( 'NONE', #129 ) ;
#169 = AXIS2_PLACEMENT_3D ( 'NONE', #259, #239, #75 ) ;
#170 = AXIS2_PLACEMENT_3D ( 'NONE', #59, #218, #36 ) ;
#171 = CALENDAR_DATE ( 2021, 15, 10 ) ;
#172 = ORIENTED_EDGE ( 'NONE', *, *, #18, .F. ) ;
#173 = EDGE_LOOP ( 'NONE', ( #4 ) ) ;
#174 = APPROVAL_STATUS ( 'not_yet_approved' ) ;
#175 = FACE_OUTER_BOUND ( 'NONE', #48, .T. ) ;
#176 = ORIENTED_EDGE ( 'NONE', *, *, #132, .T. ) ;
#177 = DATE_AND_TIME ( #7, #8 ) ;
#178 = COORDINATED_UNIVERSAL_TIME_OFFSET ( 1, 0, .AHEAD. ) ;
#179 = EDGE_CURVE ( 'NONE', #44, #44, #190, .T. ) ;
#180 = DIRECTION ( 'NONE',  ( -3.491481338843133355E-15, 1.224646799147353207E-16, -1.000000000000000000 ) ) ;
#181 = AXIS2_PLACEMENT_3D ( 'NONE', #213, #49, #233 ) ;
#182 = DIRECTION ( 'NONE',  ( -3.491481338843133355E-15, -1.224646799147354045E-15, -1.000000000000000000 ) ) ;
#183 = ORGANIZATION ( 'UNSPECIFIED', 'UNSPECIFIED', '' ) ;
#184 = CARTESIAN_POINT ( 'NONE',  ( 4.716023292149568522E-15, 1.654158298136279580E-15, 1.350722754746893406 ) ) ;
#185 = DIRECTION ( 'NONE',  ( -3.491481338843133355E-15, -1.224646799147354045E-15, -1.000000000000000000 ) ) ;
#186 = DIRECTION ( 'NONE',  ( 3.491481338843133355E-15, 1.224646799147354045E-15, 1.000000000000000000 ) ) ;
#187 = APPROVAL_PERSON_ORGANIZATION ( #188, #2, #214 ) ;
#188 = PERSON_AND_ORGANIZATION ( #108, #183 ) ;
#189 = APPLICATION_PROTOCOL_DEFINITION ( 'international standard', 'config_control_design', 1994, #117 ) ;
#190 = CIRCLE ( 'NONE', #80, 3.399999999999939071 ) ;
#191 = DATE_AND_TIME ( #229, #126 ) ;
#192 = ORIENTED_EDGE ( 'NONE', *, *, #240, .T. ) ;
#193 = SHAPE_DEFINITION_REPRESENTATION ( #242, #207 ) ;
#194 = ORIENTED_EDGE ( 'NONE', *, *, #64, .F. ) ;
#195 = PERSON_AND_ORGANIZATION_ROLE ( 'classification_officer' ) ;
#196 = PRODUCT_DEFINITION ( 'UNKNOWN', '', #153, #257 ) ;
#197 = DIRECTION ( 'NONE',  ( -3.491481338843133355E-15, -1.224646799147354045E-15, -1.000000000000000000 ) ) ;
#198 = EDGE_LOOP ( 'NONE', ( #25 ) ) ;
#199 = EDGE_LOOP ( 'NONE', ( #192 ) ) ;
#200 = ADVANCED_FACE ( 'NONE', ( #252, #29 ), #111, .T. ) ;
#201 = DIRECTION ( 'NONE',  ( 4.275831445896958607E-31, 1.000000000000000000, 1.224646799147353207E-16 ) ) ;
#202 = CONICAL_SURFACE ( 'NONE', #62, 2.724999999999998312, 1.221730476396032161 ) ;
#203 = CARTESIAN_POINT ( 'NONE',  ( 2.730338406975330410E-13, 3.999999999999992450, 78.19999999999998863 ) ) ;
#204 = DIRECTION ( 'NONE',  ( -3.491481338843133355E-15, 1.224646799147353207E-16, -1.000000000000000000 ) ) ;
#205 = CIRCLE ( 'NONE', #30, 3.399999999999967937 ) ;
#206 = CARTESIAN_POINT ( 'NONE',  ( 1.396592535537253342E-13, 4.898587196589416655E-14, 40.00000000000000000 ) ) ;
#207 = ADVANCED_BREP_SHAPE_REPRESENTATION ( '62535', ( #140, #58, #181 ), #161 ) ;
#208 = CARTESIAN_POINT ( 'NONE',  ( 1.396592535537253342E-13, -3.399999999999919087, 40.00000000000000000 ) ) ;
#209 = APPROVAL_PERSON_ORGANIZATION ( #137, #77, #89 ) ;
#210 = FACE_OUTER_BOUND ( 'NONE', #199, .T. ) ;
#211 = PERSON_AND_ORGANIZATION ( #108, #183 ) ;
#212 = ORIENTED_EDGE ( 'NONE', *, *, #64, .T. ) ;
#213 = CARTESIAN_POINT ( 'NONE',  ( 0.0000000000000000000, 0.0000000000000000000, 0.0000000000000000000 ) ) ;
#214 = APPROVAL_ROLE ( '' ) ;
#215 = APPROVAL_PERSON_ORGANIZATION ( #51, #27, #70 ) ;
#216 = DIRECTION ( 'NONE',  ( -7.250559790634430168E-30, 1.000000000000000000, -2.040851148208045075E-15 ) ) ;
#217 = CARTESIAN_POINT ( 'NONE',  ( 3.462917140274826118E-15, 2.724999999999999645, 0.9918188883753932261 ) ) ;
#218 = DIRECTION ( 'NONE',  ( 3.491481338843133355E-15, 1.224646799147354045E-15, 1.000000000000000000 ) ) ;
#219 = VERTEX_POINT ( 'NONE', #217 ) ;
#220 = FACE_OUTER_BOUND ( 'NONE', #90, .T. ) ;
#221 = FACE_OUTER_BOUND ( 'NONE', #135, .T. ) ;
#222 = DIRECTION ( 'NONE',  ( -4.305019875689155909E-30, 1.000000000000000000, -1.211755369248516348E-15 ) ) ;
#223 = LOCAL_TIME ( 11, 33, 58.00000000000000000, #63 ) ;
#224 = DIRECTION ( 'NONE',  ( 6.162975822039154730E-30, -1.000000000000000000, 1.734723475976807094E-15 ) ) ;
#225 = CARTESIAN_POINT ( 'NONE',  ( 0.0000000000000000000, 0.0000000000000000000, 0.0000000000000000000 ) ) ;
#226 = VERTEX_POINT ( 'NONE', #203 ) ;
#227 = SECURITY_CLASSIFICATION_LEVEL ( 'unclassified' ) ;
#228 = ORIENTED_EDGE ( 'NONE', *, *, #114, .F. ) ;
#229 = CALENDAR_DATE ( 2021, 15, 10 ) ;
#230 = EDGE_LOOP ( 'NONE', ( #228 ) ) ;
#231 = CC_DESIGN_PERSON_AND_ORGANIZATION_ASSIGNMENT ( #20, #109, ( #87 ) ) ;
#232 = ORIENTED_EDGE ( 'NONE', *, *, #149, .F. ) ;
#233 = DIRECTION ( 'NONE',  ( 1.000000000000000000, 0.0000000000000000000, 0.0000000000000000000 ) ) ;
#234 = CARTESIAN_POINT ( 'NONE',  ( 1.396592535537253342E-13, 4.898587196589416655E-14, 40.00000000000000000 ) ) ;
#235 = DIRECTION ( 'NONE',  ( 3.491481338843133355E-15, -1.224646799147353207E-16, 1.000000000000000000 ) ) ;
#236 = ADVANCED_FACE ( 'NONE', ( #145, #73 ), #1, .T. ) ;
#237 = CYLINDRICAL_SURFACE ( 'NONE', #165, 4.000000000000000000 ) ;
#238 = DIRECTION ( 'NONE',  ( -3.491481338843133355E-15, 1.224646799147353207E-16, -1.000000000000000000 ) ) ;
#239 = DIRECTION ( 'NONE',  ( 3.491481338843133355E-15, -1.224646799147353207E-16, 1.000000000000000000 ) ) ;
#240 = EDGE_CURVE ( 'NONE', #105, #105, #38, .T. ) ;
#241 = DIRECTION ( 'NONE',  ( -4.305019875689155909E-30, 1.000000000000000000, -1.211755369248516348E-15 ) ) ;
#242 = PRODUCT_DEFINITION_SHAPE ( 'NONE', 'NONE',  #196 ) ;
#243 = PLANE ( 'NONE',  #169 ) ;
#244 = CARTESIAN_POINT ( 'NONE',  ( 4.716023292149568522E-15, 1.654158298136279580E-15, 1.350722754746893406 ) ) ;
#245 = DATE_TIME_ROLE ( 'classification_date' ) ;
#246 = ADVANCED_FACE ( 'NONE', ( #210, #34 ), #237, .T. ) ;
#247 = APPROVAL_STATUS ( 'not_yet_approved' ) ;
#248 = COORDINATED_UNIVERSAL_TIME_OFFSET ( 1, 0, .AHEAD. ) ;
#249 = CARTESIAN_POINT ( 'NONE',  ( 1.571166602479410136E-13, 5.510910596163094289E-14, 45.00000000000000711 ) ) ;
#250 = CC_DESIGN_PERSON_AND_ORGANIZATION_ASSIGNMENT ( #211, #86, ( #196 ) ) ;
#251 = FACE_OUTER_BOUND ( 'NONE', #116, .T. ) ;
#252 = FACE_BOUND ( 'NONE', #82, .T. ) ;
#253 = CC_DESIGN_SECURITY_CLASSIFICATION ( #43, ( #153 ) ) ;
#254 = DIRECTION ( 'NONE',  ( 0.0000000000000000000, 1.000000000000000000, 0.0000000000000000000 ) ) ;
#255 = FACE_OUTER_BOUND ( 'NONE', #6, .T. ) ;
#256 = FACE_OUTER_BOUND ( 'NONE', #119, .T. ) ;
#257 = DESIGN_CONTEXT ( 'detailed design', #117, 'design' ) ;
#258 = FACE_OUTER_BOUND ( 'NONE', #173, .T. ) ;
#259 = CARTESIAN_POINT ( 'NONE',  ( 1.396592535537253342E-13, 2.999519565323705910E-32, 40.00000000000000000 ) ) ;
#260 = AXIS2_PLACEMENT_3D ( 'NONE', #39, #182, #144 ) ;
#261 = VERTEX_POINT ( 'NONE', #41 ) ;
#262 = CALENDAR_DATE ( 2021, 15, 10 ) ;
#263 = COORDINATED_UNIVERSAL_TIME_OFFSET ( 1, 0, .AHEAD. ) ;
ENDSEC;
END-ISO-10303-21;
