ISO-10303-21;
HEADER;
FILE_DESCRIPTION (( 'STEP AP203' ),
    '1' );
FILE_NAME ('62534.step',
    '2021-10-15T09:33:57',
    ( '' ),
    ( '' ),
    'SwSTEP 2.0',
    'SolidWorks 2019',
    '' );
FILE_SCHEMA (( 'CONFIG_CONTROL_DESIGN' ));
ENDSEC;

DATA;
#1 = CC_DESIGN_DATE_AND_TIME_ASSIGNMENT ( #8, #144, ( #145 ) ) ;
#2 = CYLINDRICAL_SURFACE ( 'NONE', #12, 2.999999999999997780 ) ;
#3 = CARTESIAN_POINT ( 'NONE',  ( 2.541590561669604627E-15, 8.914699647580300072E-16, 0.7279404685324009083 ) ) ;
#4 = DIRECTION ( 'NONE',  ( -3.491481338843133355E-15, -1.224646799147354045E-15, -1.000000000000000000 ) ) ;
#5 = CYLINDRICAL_SURFACE ( 'NONE', #77, 2.499999999999976019 ) ;
#6 = FACE_OUTER_BOUND ( 'NONE', #175, .T. ) ;
#7 = CC_DESIGN_PERSON_AND_ORGANIZATION_ASSIGNMENT ( #172, #233, ( #230 ) ) ;
#8 = DATE_AND_TIME ( #94, #78 ) ;
#9 = DIRECTION ( 'NONE',  ( 3.491481338843133355E-15, -1.224646799147353207E-16, 1.000000000000000000 ) ) ;
#10 = CONICAL_SURFACE ( 'NONE', #215, 1.999999999999999112, 1.221730476396032383 ) ;
#11 = ORIENTED_EDGE ( 'NONE', *, *, #180, .T. ) ;
#12 = AXIS2_PLACEMENT_3D ( 'NONE', #206, #43, #187 ) ;
#13 = PRODUCT_DEFINITION_SHAPE ( 'NONE', 'NONE',  #145 ) ;
#14 =( GEOMETRIC_REPRESENTATION_CONTEXT ( 3 ) GLOBAL_UNCERTAINTY_ASSIGNED_CONTEXT ( ( #98 ) ) GLOBAL_UNIT_ASSIGNED_CONTEXT ( ( #241, #237, #21 ) ) REPRESENTATION_CONTEXT ( 'NONE', 'WORKASPACE' ) );
#15 = FACE_BOUND ( 'NONE', #104, .T. ) ;
#16 = EDGE_LOOP ( 'NONE', ( #53 ) ) ;
#17 = CONICAL_SURFACE ( 'NONE', #213, 3.499999999999950706, 0.5235987755982970393 ) ;
#18 = DIRECTION ( 'NONE',  ( -3.491481338843133355E-15, 1.224646799147353207E-16, -1.000000000000000000 ) ) ;
#19 = APPROVAL_ROLE ( '' ) ;
#20 = EDGE_LOOP ( 'NONE', ( #11 ) ) ;
#21 =( NAMED_UNIT ( * ) SI_UNIT ( $, .STERADIAN. ) SOLID_ANGLE_UNIT ( ) );
#22 = CLOSED_SHELL ( 'NONE', ( #97, #125, #116, #153 ) ) ;
#23 = DIRECTION ( 'NONE',  ( -3.491481338843133355E-15, 1.224646799147353207E-16, -1.000000000000000000 ) ) ;
#24 = VERTEX_POINT ( 'NONE', #105 ) ;
#25 = CIRCLE ( 'NONE', #33, 2.300000000000000266 ) ;
#26 = FACE_OUTER_BOUND ( 'NONE', #131, .T. ) ;
#27 = CALENDAR_DATE ( 2021, 15, 10 ) ;
#28 = DIRECTION ( 'NONE',  ( -3.491481338843133355E-15, 1.224646799147353207E-16, -1.000000000000000000 ) ) ;
#29 = CALENDAR_DATE ( 2021, 15, 10 ) ;
#30 = CC_DESIGN_PERSON_AND_ORGANIZATION_ASSIGNMENT ( #188, #208, ( #230 ) ) ;
#31 = EDGE_LOOP ( 'NONE', ( #235 ) ) ;
#32 = ORIENTED_EDGE ( 'NONE', *, *, #76, .T. ) ;
#33 = AXIS2_PLACEMENT_3D ( 'NONE', #200, #28, #45 ) ;
#34 = EDGE_CURVE ( 'NONE', #138, #138, #57, .T. ) ;
#35 = CIRCLE ( 'NONE', #59, 2.499999999999998224 ) ;
#36 = PRODUCT ( '62534', '62534', '', ( #177 ) ) ;
#37 = FACE_OUTER_BOUND ( 'NONE', #211, .T. ) ;
#38 = DIRECTION ( 'NONE',  ( -4.314083075427449649E-30, 1.000000000000000000, -1.214306433183776602E-15 ) ) ;
#39 = CARTESIAN_POINT ( 'NONE',  ( 1.047444401652940007E-13, 3.673940397442062649E-14, 30.00000000000000000 ) ) ;
#40 = CIRCLE ( 'NONE', #194, 1.999999999999999112 ) ;
#41 = PERSON_AND_ORGANIZATION ( #162, #263 ) ;
#42 = APPROVAL_PERSON_ORGANIZATION ( #41, #261, #19 ) ;
#43 = DIRECTION ( 'NONE',  ( -3.491481338843133355E-15, 1.224646799147353207E-16, -1.000000000000000000 ) ) ;
#44 = DIRECTION ( 'NONE',  ( 7.043400939473419384E-30, -1.000000000000000000, 1.982541115402093312E-15 ) ) ;
#45 = DIRECTION ( 'NONE',  ( 0.0000000000000000000, 1.000000000000000000, 0.0000000000000000000 ) ) ;
#46 = EDGE_CURVE ( 'NONE', #83, #83, #192, .T. ) ;
#47 = CC_DESIGN_APPROVAL ( #261, ( #145 ) ) ;
#48 = PLANE ( 'NONE',  #113 ) ;
#49 = DATE_AND_TIME ( #27, #52 ) ;
#50 = EDGE_CURVE ( 'NONE', #156, #156, #40, .T. ) ;
#51 = APPROVAL_STATUS ( 'not_yet_approved' ) ;
#52 = LOCAL_TIME ( 11, 33, 57.00000000000000000, #231 ) ;
#53 = ORIENTED_EDGE ( 'NONE', *, *, #46, .T. ) ;
#54 = EDGE_LOOP ( 'NONE', ( #135 ) ) ;
#55 = EDGE_CURVE ( 'NONE', #201, #201, #25, .T. ) ;
#56 = ORIENTED_EDGE ( 'NONE', *, *, #180, .F. ) ;
#57 = CIRCLE ( 'NONE', #204, 3.000000000000000000 ) ;
#58 = ORIENTED_EDGE ( 'NONE', *, *, #34, .F. ) ;
#59 = AXIS2_PLACEMENT_3D ( 'NONE', #147, #232, #93 ) ;
#60 = APPROVAL_STATUS ( 'not_yet_approved' ) ;
#61 = DIRECTION ( 'NONE',  ( -4.314083075427449649E-30, 1.000000000000000000, -1.214306433183776602E-15 ) ) ;
#62 = DIRECTION ( 'NONE',  ( 0.0000000000000000000, -1.000000000000000000, 0.0000000000000000000 ) ) ;
#63 = PERSON_AND_ORGANIZATION ( #162, #263 ) ;
#64 = CARTESIAN_POINT ( 'NONE',  ( 3.469817340836072389E-15, 1.217048091538373305E-15, 0.9937951843631392945 ) ) ;
#65 = ADVANCED_FACE ( 'NONE', ( #182, #203 ), #2, .T. ) ;
#66 = CARTESIAN_POINT ( 'NONE',  ( -3.491481338843130200E-15, -1.224646799147353059E-15, -0.9999999999999991118 ) ) ;
#67 = CARTESIAN_POINT ( 'NONE',  ( 1.047444401652940007E-13, 2.249639673992777927E-32, 30.00000000000000000 ) ) ;
#68 = APPROVAL_ROLE ( '' ) ;
#69 = FACE_OUTER_BOUND ( 'NONE', #16, .T. ) ;
#70 = APPROVAL_STATUS ( 'not_yet_approved' ) ;
#71 = CARTESIAN_POINT ( 'NONE',  ( 2.304377683636468267E-13, 1.724723750061123933E-32, 66.00000000000000000 ) ) ;
#72 = APPROVAL_ROLE ( '' ) ;
#73 = PERSON_AND_ORGANIZATION ( #162, #263 ) ;
#74 = CONICAL_SURFACE ( 'NONE', #151, 2.300000000000000266, 0.7853981633974437271 ) ;
#75 = MANIFOLD_SOLID_BREP ( 'Corps-Déplacer/Copier1[2]', #22 ) ;
#76 = EDGE_CURVE ( 'NONE', #181, #181, #174, .T. ) ;
#77 = AXIS2_PLACEMENT_3D ( 'NONE', #90, #115, #61 ) ;
#78 = LOCAL_TIME ( 11, 33, 57.00000000000000000, #121 ) ;
#79 = EDGE_LOOP ( 'NONE', ( #82 ) ) ;
#80 = LOCAL_TIME ( 11, 33, 57.00000000000000000, #183 ) ;
#81 = CARTESIAN_POINT ( 'NONE',  ( 1.047444401652940007E-13, -2.499999999999939160, 30.00000000000000000 ) ) ;
#82 = ORIENTED_EDGE ( 'NONE', *, *, #55, .F. ) ;
#83 = VERTEX_POINT ( 'NONE', #81 ) ;
#84 = CARTESIAN_POINT ( 'NONE',  ( 1.047444401652940007E-13, 2.249639673992777927E-32, 30.00000000000000000 ) ) ;
#85 = CALENDAR_DATE ( 2021, 15, 10 ) ;
#86 = DIRECTION ( 'NONE',  ( 3.491481338843133355E-15, 1.224646799147354045E-15, 1.000000000000000000 ) ) ;
#87 = APPROVAL ( #70, 'UNSPECIFIED' ) ;
#88 = AXIS2_PLACEMENT_3D ( 'NONE', #120, #143, #62 ) ;
#89 = APPLICATION_PROTOCOL_DEFINITION ( 'international standard', 'config_control_design', 1994, #149 ) ;
#90 = CARTESIAN_POINT ( 'NONE',  ( -3.491481338843130200E-15, -1.224646799147353059E-15, -0.9999999999999991118 ) ) ;
#91 = DIRECTION ( 'NONE',  ( 0.0000000000000000000, 1.000000000000000000, 0.0000000000000000000 ) ) ;
#92 = APPROVAL_DATE_TIME ( #126, #87 ) ;
#93 = DIRECTION ( 'NONE',  ( -4.314083075427411113E-30, 1.000000000000000000, -1.214306433183765755E-15 ) ) ;
#94 = CALENDAR_DATE ( 2021, 15, 10 ) ;
#95 = ADVANCED_FACE ( 'NONE', ( #26 ), #222, .F. ) ;
#96 = CC_DESIGN_APPROVAL ( #214, ( #221 ) ) ;
#97 = ADVANCED_FACE ( 'NONE', ( #124 ), #48, .T. ) ;
#98 = UNCERTAINTY_MEASURE_WITH_UNIT (LENGTH_MEASURE( 1.000000000000000082E-05 ), #241, 'distance_accuracy_value', 'NONE');
#99 = DIRECTION ( 'NONE',  ( 1.000000000000000000, 0.0000000000000000000, 0.0000000000000000000 ) ) ;
#100 = ORIENTED_EDGE ( 'NONE', *, *, #132, .T. ) ;
#101 = DIRECTION ( 'NONE',  ( -3.491481338843133355E-15, 1.224646799147353207E-16, -1.000000000000000000 ) ) ;
#102 = DIRECTION ( 'NONE',  ( -4.275831445896958607E-31, -1.000000000000000000, -1.224646799147353207E-16 ) ) ;
#103 = CARTESIAN_POINT ( 'NONE',  ( 1.047444401652940007E-13, -2.499999999999939160, 30.00000000000000000 ) ) ;
#104 = EDGE_LOOP ( 'NONE', ( #155 ) ) ;
#105 = CARTESIAN_POINT ( 'NONE',  ( 1.187103655206665341E-13, 2.499999999999995559, 34.00000000000000000 ) ) ;
#106 = DIRECTION ( 'NONE',  ( 3.491481338843133355E-15, 1.224646799147354045E-15, 1.000000000000000000 ) ) ;
#107 = DIRECTION ( 'NONE',  ( 3.491481338843133355E-15, -1.224646799147353207E-16, 1.000000000000000000 ) ) ;
#108 = CIRCLE ( 'NONE', #256, 2.499999999999954259 ) ;
#109 = ADVANCED_FACE ( 'NONE', ( #158, #164 ), #74, .T. ) ;
#110 = EDGE_LOOP ( 'NONE', ( #178 ) ) ;
#111 = APPLICATION_CONTEXT ( 'configuration controlled 3d designs of mechanical parts and assemblies' ) ;
#112 = LOCAL_TIME ( 11, 33, 57.00000000000000000, #171 ) ;
#113 = AXIS2_PLACEMENT_3D ( 'NONE', #84, #9, #102 ) ;
#114 = CARTESIAN_POINT ( 'NONE',  ( 3.469817340836061739E-15, 2.499999999999999556, 0.9937951843631362969 ) ) ;
#115 = DIRECTION ( 'NONE',  ( -3.491481338843133355E-15, -1.224646799147354045E-15, -1.000000000000000000 ) ) ;
#116 = ADVANCED_FACE ( 'NONE', ( #184, #160 ), #244, .T. ) ;
#117 = FACE_OUTER_BOUND ( 'NONE', #54, .T. ) ;
#118 = DIRECTION ( 'NONE',  ( -3.491481338843133355E-15, -1.224646799147354045E-15, -1.000000000000000000 ) ) ;
#119 = CARTESIAN_POINT ( 'NONE',  ( 1.247577885932214670E-13, 4.375914164845986212E-14, 35.73205080756888208 ) ) ;
#120 = CARTESIAN_POINT ( 'NONE',  ( 1.047444401652940007E-13, 3.673940397442062649E-14, 30.00000000000000000 ) ) ;
#121 = COORDINATED_UNIVERSAL_TIME_OFFSET ( 1, 0, .AHEAD. ) ;
#122 = APPLICATION_PROTOCOL_DEFINITION ( 'international standard', 'config_control_design', 1994, #111 ) ;
#123 = CARTESIAN_POINT ( 'NONE',  ( 1.187103655206665341E-13, 4.163799117101004504E-14, 34.00000000000000000 ) ) ;
#124 = FACE_OUTER_BOUND ( 'NONE', #129, .T. ) ;
#125 = ADVANCED_FACE ( 'NONE', ( #247 ), #10, .T. ) ;
#126 = DATE_AND_TIME ( #146, #112 ) ;
#127 = CC_DESIGN_PERSON_AND_ORGANIZATION_ASSIGNMENT ( #136, #239, ( #36 ) ) ;
#128 = AXIS2_PLACEMENT_3D ( 'NONE', #67, #107, #198 ) ;
#129 = EDGE_LOOP ( 'NONE', ( #133 ) ) ;
#130 = ADVANCED_BREP_SHAPE_REPRESENTATION ( '62534', ( #154, #75, #165 ), #14 ) ;
#131 = EDGE_LOOP ( 'NONE', ( #100 ) ) ;
#132 = EDGE_CURVE ( 'NONE', #199, #199, #157, .T. ) ;
#133 = ORIENTED_EDGE ( 'NONE', *, *, #46, .F. ) ;
#134 = CARTESIAN_POINT ( 'NONE',  ( 2.279937314264566018E-13, 2.999999999999992450, 65.29999999999999716 ) ) ;
#135 = ORIENTED_EDGE ( 'NONE', *, *, #132, .F. ) ;
#136 = PERSON_AND_ORGANIZATION ( #162, #263 ) ;
#137 = DIRECTION ( 'NONE',  ( -3.491481338843133355E-15, -1.224646799147354045E-15, -1.000000000000000000 ) ) ;
#138 = VERTEX_POINT ( 'NONE', #134 ) ;
#139 = DIRECTION ( 'NONE',  ( 3.491481338843133355E-15, 1.224646799147354045E-15, 1.000000000000000000 ) ) ;
#140 = APPROVAL_DATE_TIME ( #243, #261 ) ;
#141 = CARTESIAN_POINT ( 'NONE',  ( 2.541590561669604627E-15, 8.914699647580300072E-16, 0.7279404685324009083 ) ) ;
#142 = CARTESIAN_POINT ( 'NONE',  ( 0.0000000000000000000, 0.0000000000000000000, 0.0000000000000000000 ) ) ;
#143 = DIRECTION ( 'NONE',  ( -3.491481338843133355E-15, 1.224646799147353207E-16, -1.000000000000000000 ) ) ;
#144 = DATE_TIME_ROLE ( 'creation_date' ) ;
#145 = PRODUCT_DEFINITION ( 'UNKNOWN', '', #230, #258 ) ;
#146 = CALENDAR_DATE ( 2021, 15, 10 ) ;
#147 = CARTESIAN_POINT ( 'NONE',  ( 3.469817340836072389E-15, 1.217048091538373305E-15, 0.9937951843631392945 ) ) ;
#148 = PERSON_AND_ORGANIZATION ( #162, #263 ) ;
#149 = APPLICATION_CONTEXT ( 'configuration controlled 3d designs of mechanical parts and assemblies' ) ;
#150 = PERSON_AND_ORGANIZATION_ROLE ( 'classification_officer' ) ;
#151 = AXIS2_PLACEMENT_3D ( 'NONE', #186, #23, #245 ) ;
#152 = CC_DESIGN_PERSON_AND_ORGANIZATION_ASSIGNMENT ( #63, #161, ( #145 ) ) ;
#153 = ADVANCED_FACE ( 'NONE', ( #69, #6 ), #5, .T. ) ;
#154 = MANIFOLD_SOLID_BREP ( 'Corps-Déplacer/Copier1[1]', #173 ) ;
#155 = ORIENTED_EDGE ( 'NONE', *, *, #176, .F. ) ;
#156 = VERTEX_POINT ( 'NONE', #205 ) ;
#157 = CIRCLE ( 'NONE', #88, 2.499999999999976019 ) ;
#158 = FACE_OUTER_BOUND ( 'NONE', #255, .T. ) ;
#159 = CARTESIAN_POINT ( 'NONE',  ( 2.304377683636468267E-13, 2.299999999999992273, 66.00000000000000000 ) ) ;
#160 = FACE_OUTER_BOUND ( 'NONE', #20, .T. ) ;
#161 = PERSON_AND_ORGANIZATION_ROLE ( 'creator' ) ;
#162 = PERSON ( 'UNSPECIFIED', 'UNSPECIFIED', 'UNSPECIFIED', ('UNSPECIFIED'), ('UNSPECIFIED'), ('UNSPECIFIED') ) ;
#163 = DIRECTION ( 'NONE',  ( -3.491481338843133355E-15, 1.224646799147353207E-16, -1.000000000000000000 ) ) ;
#164 = FACE_BOUND ( 'NONE', #31, .T. ) ;
#165 = AXIS2_PLACEMENT_3D ( 'NONE', #142, #195, #99 ) ;
#166 = CARTESIAN_POINT ( 'NONE',  ( 1.217340770569442908E-13, -2.999999999999955591, 34.86602540378452630 ) ) ;
#167 = DIRECTION ( 'NONE',  ( 0.0000000000000000000, 1.000000000000000000, 0.0000000000000000000 ) ) ;
#168 = DIRECTION ( 'NONE',  ( 0.0000000000000000000, -1.000000000000000000, 0.0000000000000000000 ) ) ;
#169 = SECURITY_CLASSIFICATION_LEVEL ( 'unclassified' ) ;
#170 = FACE_OUTER_BOUND ( 'NONE', #79, .T. ) ;
#171 = COORDINATED_UNIVERSAL_TIME_OFFSET ( 1, 0, .AHEAD. ) ;
#172 = PERSON_AND_ORGANIZATION ( #162, #263 ) ;
#173 = CLOSED_SHELL ( 'NONE', ( #65, #109, #196, #249, #224, #95 ) ) ;
#174 = CIRCLE ( 'NONE', #179, 2.999999999999997780 ) ;
#175 = EDGE_LOOP ( 'NONE', ( #56 ) ) ;
#176 = EDGE_CURVE ( 'NONE', #24, #24, #108, .T. ) ;
#177 = MECHANICAL_CONTEXT ( 'NONE', #111, 'mechanical' ) ;
#178 = ORIENTED_EDGE ( 'NONE', *, *, #50, .T. ) ;
#179 = AXIS2_PLACEMENT_3D ( 'NONE', #185, #86, #246 ) ;
#180 = EDGE_CURVE ( 'NONE', #225, #225, #35, .T. ) ;
#181 = VERTEX_POINT ( 'NONE', #166 ) ;
#182 = FACE_OUTER_BOUND ( 'NONE', #207, .T. ) ;
#183 = COORDINATED_UNIVERSAL_TIME_OFFSET ( 1, 0, .AHEAD. ) ;
#184 = FACE_BOUND ( 'NONE', #212, .T. ) ;
#185 = CARTESIAN_POINT ( 'NONE',  ( 1.217340770569442656E-13, 4.269856640973505140E-14, 34.86602540378451920 ) ) ;
#186 = CARTESIAN_POINT ( 'NONE',  ( 2.304377683636468267E-13, -8.082668874372532400E-15, 66.00000000000000000 ) ) ;
#187 = DIRECTION ( 'NONE',  ( 4.275831445896958607E-31, 1.000000000000000000, 1.224646799147353454E-16 ) ) ;
#188 = PERSON_AND_ORGANIZATION ( #162, #263 ) ;
#189 = DATE_AND_TIME ( #29, #210 ) ;
#190 = AXIS2_PLACEMENT_3D ( 'NONE', #71, #163, #220 ) ;
#191 = ORIENTED_EDGE ( 'NONE', *, *, #50, .F. ) ;
#192 = CIRCLE ( 'NONE', #254, 2.499999999999976019 ) ;
#193 = CC_DESIGN_SECURITY_CLASSIFICATION ( #221, ( #230 ) ) ;
#194 = AXIS2_PLACEMENT_3D ( 'NONE', #3, #118, #227 ) ;
#195 = DIRECTION ( 'NONE',  ( 0.0000000000000000000, 0.0000000000000000000, 1.000000000000000000 ) ) ;
#196 = ADVANCED_FACE ( 'NONE', ( #170 ), #250, .F. ) ;
#197 = FACE_OUTER_BOUND ( 'NONE', #240, .T. ) ;
#198 = DIRECTION ( 'NONE',  ( -4.275831445896958607E-31, -1.000000000000000000, -1.224646799147353207E-16 ) ) ;
#199 = VERTEX_POINT ( 'NONE', #103 ) ;
#200 = CARTESIAN_POINT ( 'NONE',  ( 2.304377683636468267E-13, -8.082668874372532400E-15, 66.00000000000000000 ) ) ;
#201 = VERTEX_POINT ( 'NONE', #159 ) ;
#202 = PRODUCT_RELATED_PRODUCT_CATEGORY ( 'detail', '', ( #36 ) ) ;
#203 = FACE_OUTER_BOUND ( 'NONE', #217, .T. ) ;
#204 = AXIS2_PLACEMENT_3D ( 'NONE', #219, #18, #91 ) ;
#205 = CARTESIAN_POINT ( 'NONE',  ( 2.541590561669595950E-15, 2.000000000000000000, 0.7279404685323983548 ) ) ;
#206 = CARTESIAN_POINT ( 'NONE',  ( 0.0000000000000000000, 0.0000000000000000000, 0.0000000000000000000 ) ) ;
#207 = EDGE_LOOP ( 'NONE', ( #32 ) ) ;
#208 = PERSON_AND_ORGANIZATION_ROLE ( 'design_supplier' ) ;
#209 = COORDINATED_UNIVERSAL_TIME_OFFSET ( 1, 0, .AHEAD. ) ;
#210 = LOCAL_TIME ( 11, 33, 57.00000000000000000, #209 ) ;
#211 = EDGE_LOOP ( 'NONE', ( #260 ) ) ;
#212 = EDGE_LOOP ( 'NONE', ( #191 ) ) ;
#213 = AXIS2_PLACEMENT_3D ( 'NONE', #119, #218, #44 ) ;
#214 = APPROVAL ( #51, 'UNSPECIFIED' ) ;
#215 = AXIS2_PLACEMENT_3D ( 'NONE', #141, #106, #226 ) ;
#216 = CC_DESIGN_DATE_AND_TIME_ASSIGNMENT ( #189, #248, ( #221 ) ) ;
#217 = EDGE_LOOP ( 'NONE', ( #257 ) ) ;
#218 = DIRECTION ( 'NONE',  ( 3.491481338843133355E-15, 1.224646799147354045E-15, 1.000000000000000000 ) ) ;
#219 = CARTESIAN_POINT ( 'NONE',  ( 2.279937314264566018E-13, -7.996943598432214956E-15, 65.29999999999999716 ) ) ;
#220 = DIRECTION ( 'NONE',  ( 4.275831445896958607E-31, 1.000000000000000000, 1.224646799147353207E-16 ) ) ;
#221 = SECURITY_CLASSIFICATION ( '', '', #169 ) ;
#222 = PLANE ( 'NONE',  #128 ) ;
#223 = APPROVAL_PERSON_ORGANIZATION ( #148, #87, #72 ) ;
#224 = ADVANCED_FACE ( 'NONE', ( #15, #197 ), #17, .T. ) ;
#225 = VERTEX_POINT ( 'NONE', #114 ) ;
#226 = DIRECTION ( 'NONE',  ( 4.237045877651920979E-30, -1.000000000000000000, 1.246832498358330691E-15 ) ) ;
#227 = DIRECTION ( 'NONE',  ( -4.237045877651920979E-30, 1.000000000000000000, -1.246832498358330691E-15 ) ) ;
#228 = APPROVAL_DATE_TIME ( #49, #214 ) ;
#229 = ORIENTED_EDGE ( 'NONE', *, *, #76, .F. ) ;
#230 = PRODUCT_DEFINITION_FORMATION_WITH_SPECIFIED_SOURCE ( 'ANY', '', #36, .NOT_KNOWN. ) ;
#231 = COORDINATED_UNIVERSAL_TIME_OFFSET ( 1, 0, .AHEAD. ) ;
#232 = DIRECTION ( 'NONE',  ( -3.491481338843133355E-15, -1.224646799147354045E-15, -1.000000000000000000 ) ) ;
#233 = PERSON_AND_ORGANIZATION_ROLE ( 'creator' ) ;
#234 = SHAPE_DEFINITION_REPRESENTATION ( #13, #130 ) ;
#235 = ORIENTED_EDGE ( 'NONE', *, *, #55, .T. ) ;
#236 = AXIS2_PLACEMENT_3D ( 'NONE', #64, #139, #242 ) ;
#237 =( NAMED_UNIT ( * ) PLANE_ANGLE_UNIT ( ) SI_UNIT ( $, .RADIAN. ) );
#238 = AXIS2_PLACEMENT_3D ( 'NONE', #66, #4, #38 ) ;
#239 = PERSON_AND_ORGANIZATION_ROLE ( 'design_owner' ) ;
#240 = EDGE_LOOP ( 'NONE', ( #229 ) ) ;
#241 =( LENGTH_UNIT ( ) NAMED_UNIT ( * ) SI_UNIT ( .MILLI., .METRE. ) );
#242 = DIRECTION ( 'NONE',  ( 4.314083075427411113E-30, -1.000000000000000000, 1.214306433183765755E-15 ) ) ;
#243 = DATE_AND_TIME ( #85, #80 ) ;
#244 = CONICAL_SURFACE ( 'NONE', #236, 2.499999999999998224, 1.082104136236484937 ) ;
#245 = DIRECTION ( 'NONE',  ( 0.0000000000000000000, 1.000000000000000000, 0.0000000000000000000 ) ) ;
#246 = DIRECTION ( 'NONE',  ( 8.217301096052212846E-30, -1.000000000000000000, 2.312964634635744633E-15 ) ) ;
#247 = FACE_OUTER_BOUND ( 'NONE', #110, .T. ) ;
#248 = DATE_TIME_ROLE ( 'classification_date' ) ;
#249 = ADVANCED_FACE ( 'NONE', ( #37, #117 ), #262, .T. ) ;
#250 = PLANE ( 'NONE',  #190 ) ;
#251 = CC_DESIGN_APPROVAL ( #87, ( #230 ) ) ;
#252 = PERSON_AND_ORGANIZATION ( #162, #263 ) ;
#253 = CC_DESIGN_PERSON_AND_ORGANIZATION_ASSIGNMENT ( #73, #150, ( #221 ) ) ;
#254 = AXIS2_PLACEMENT_3D ( 'NONE', #39, #101, #168 ) ;
#255 = EDGE_LOOP ( 'NONE', ( #58 ) ) ;
#256 = AXIS2_PLACEMENT_3D ( 'NONE', #123, #137, #167 ) ;
#257 = ORIENTED_EDGE ( 'NONE', *, *, #34, .T. ) ;
#258 = DESIGN_CONTEXT ( 'detailed design', #149, 'design' ) ;
#259 = APPROVAL_PERSON_ORGANIZATION ( #252, #214, #68 ) ;
#260 = ORIENTED_EDGE ( 'NONE', *, *, #176, .T. ) ;
#261 = APPROVAL ( #60, 'UNSPECIFIED' ) ;
#262 = CYLINDRICAL_SURFACE ( 'NONE', #238, 2.499999999999976019 ) ;
#263 = ORGANIZATION ( 'UNSPECIFIED', 'UNSPECIFIED', '' ) ;
ENDSEC;
END-ISO-10303-21;
