ISO-10303-21;
HEADER;
FILE_DESCRIPTION (( 'STEP AP203' ),
    '1' );
FILE_NAME ('62533.step',
    '2021-10-15T09:33:57',
    ( '' ),
    ( '' ),
    'SwSTEP 2.0',
    'SolidWorks 2019',
    '' );
FILE_SCHEMA (( 'CONFIG_CONTROL_DESIGN' ));
ENDSEC;

DATA;
#1 = DIRECTION ( 'NONE',  ( 3.491481338843133355E-15, 1.224646799147354045E-15, 1.000000000000000000 ) ) ;
#2 = APPLICATION_PROTOCOL_DEFINITION ( 'international standard', 'config_control_design', 1994, #241 ) ;
#3 =( LENGTH_UNIT ( ) NAMED_UNIT ( * ) SI_UNIT ( .MILLI., .METRE. ) );
#4 = CALENDAR_DATE ( 2021, 15, 10 ) ;
#5 = EDGE_LOOP ( 'NONE', ( #205 ) ) ;
#6 = CALENDAR_DATE ( 2021, 15, 10 ) ;
#7 = CIRCLE ( 'NONE', #96, 2.300000000000000266 ) ;
#8 = PERSON_AND_ORGANIZATION ( #30, #235 ) ;
#9 = PRODUCT_DEFINITION_FORMATION_WITH_SPECIFIED_SOURCE ( 'ANY', '', #79, .NOT_KNOWN. ) ;
#10 = EDGE_LOOP ( 'NONE', ( #112 ) ) ;
#11 = FACE_OUTER_BOUND ( 'NONE', #226, .T. ) ;
#12 = DIRECTION ( 'NONE',  ( 3.491481338843133355E-15, -1.224646799147353207E-16, 1.000000000000000000 ) ) ;
#13 = ADVANCED_FACE ( 'NONE', ( #52, #11 ), #189, .T. ) ;
#14 = CARTESIAN_POINT ( 'NONE',  ( 2.279937314264566018E-13, -7.996943598432214956E-15, 65.29999999999999716 ) ) ;
#15 = CARTESIAN_POINT ( 'NONE',  ( 1.047444401652940007E-13, 3.673940397442062649E-14, 30.00000000000000000 ) ) ;
#16 = AXIS2_PLACEMENT_3D ( 'NONE', #215, #1, #261 ) ;
#17 = FACE_OUTER_BOUND ( 'NONE', #188, .T. ) ;
#18 = ADVANCED_FACE ( 'NONE', ( #151, #216 ), #245, .T. ) ;
#19 = VERTEX_POINT ( 'NONE', #57 ) ;
#20 = FACE_OUTER_BOUND ( 'NONE', #208, .T. ) ;
#21 = CARTESIAN_POINT ( 'NONE',  ( 0.0000000000000000000, 0.0000000000000000000, 0.0000000000000000000 ) ) ;
#22 = MANIFOLD_SOLID_BREP ( 'Corps-Déplacer/Copier1[1]', #240 ) ;
#23 = ADVANCED_FACE ( 'NONE', ( #17 ), #169, .F. ) ;
#24 = COORDINATED_UNIVERSAL_TIME_OFFSET ( 1, 0, .AHEAD. ) ;
#25 = COORDINATED_UNIVERSAL_TIME_OFFSET ( 1, 0, .AHEAD. ) ;
#26 = ORIENTED_EDGE ( 'NONE', *, *, #238, .T. ) ;
#27 = CIRCLE ( 'NONE', #126, 3.000000000000000000 ) ;
#28 = ORIENTED_EDGE ( 'NONE', *, *, #211, .T. ) ;
#29 = AXIS2_PLACEMENT_3D ( 'NONE', #21, #101, #179 ) ;
#30 = PERSON ( 'UNSPECIFIED', 'UNSPECIFIED', 'UNSPECIFIED', ('UNSPECIFIED'), ('UNSPECIFIED'), ('UNSPECIFIED') ) ;
#31 = DIRECTION ( 'NONE',  ( 4.275831445896958607E-31, 1.000000000000000000, 1.224646799147353207E-16 ) ) ;
#32 = CARTESIAN_POINT ( 'NONE',  ( 1.047444401652940007E-13, 2.249639673992777927E-32, 30.00000000000000000 ) ) ;
#33 = FACE_OUTER_BOUND ( 'NONE', #10, .T. ) ;
#34 = APPLICATION_CONTEXT ( 'configuration controlled 3d designs of mechanical parts and assemblies' ) ;
#35 = ORIENTED_EDGE ( 'NONE', *, *, #238, .F. ) ;
#36 = ADVANCED_FACE ( 'NONE', ( #129, #33 ), #69, .T. ) ;
#37 =( NAMED_UNIT ( * ) SI_UNIT ( $, .STERADIAN. ) SOLID_ANGLE_UNIT ( ) );
#38 = CARTESIAN_POINT ( 'NONE',  ( 2.279937314264566018E-13, 2.999999999999992450, 65.29999999999999716 ) ) ;
#39 = CC_DESIGN_PERSON_AND_ORGANIZATION_ASSIGNMENT ( #224, #187, ( #199 ) ) ;
#40 = AXIS2_PLACEMENT_3D ( 'NONE', #191, #114, #212 ) ;
#41 =( GEOMETRIC_REPRESENTATION_CONTEXT ( 3 ) GLOBAL_UNCERTAINTY_ASSIGNED_CONTEXT ( ( #73 ) ) GLOBAL_UNIT_ASSIGNED_CONTEXT ( ( #3, #219, #37 ) ) REPRESENTATION_CONTEXT ( 'NONE', 'WORKASPACE' ) );
#42 = LOCAL_TIME ( 11, 33, 57.00000000000000000, #163 ) ;
#43 = ADVANCED_FACE ( 'NONE', ( #72, #260 ), #53, .T. ) ;
#44 = COORDINATED_UNIVERSAL_TIME_OFFSET ( 1, 0, .AHEAD. ) ;
#45 = EDGE_LOOP ( 'NONE', ( #246 ) ) ;
#46 = EDGE_LOOP ( 'NONE', ( #68 ) ) ;
#47 = CC_DESIGN_APPROVAL ( #150, ( #9 ) ) ;
#48 = CALENDAR_DATE ( 2021, 15, 10 ) ;
#49 = ORIENTED_EDGE ( 'NONE', *, *, #117, .T. ) ;
#50 = CIRCLE ( 'NONE', #77, 2.099999999999976996 ) ;
#51 = EDGE_CURVE ( 'NONE', #155, #155, #115, .T. ) ;
#52 = FACE_BOUND ( 'NONE', #61, .T. ) ;
#53 = CYLINDRICAL_SURFACE ( 'NONE', #107, 2.099999999999976996 ) ;
#54 = DIRECTION ( 'NONE',  ( 3.491481338843133355E-15, 1.224646799147354045E-15, 1.000000000000000000 ) ) ;
#55 = CARTESIAN_POINT ( 'NONE',  ( 2.128582095398294674E-15, 7.466060954848501138E-16, 0.6096501423958858856 ) ) ;
#56 = VERTEX_POINT ( 'NONE', #221 ) ;
#57 = CARTESIAN_POINT ( 'NONE',  ( 1.047444401652940007E-13, -2.099999999999940137, 30.00000000000000000 ) ) ;
#58 = FACE_OUTER_BOUND ( 'NONE', #45, .T. ) ;
#59 = AXIS2_PLACEMENT_3D ( 'NONE', #243, #100, #80 ) ;
#60 = PERSON_AND_ORGANIZATION ( #30, #235 ) ;
#61 = EDGE_LOOP ( 'NONE', ( #210 ) ) ;
#62 = DATE_TIME_ROLE ( 'classification_date' ) ;
#63 = AXIS2_PLACEMENT_3D ( 'NONE', #32, #12, #174 ) ;
#64 = PERSON_AND_ORGANIZATION ( #30, #235 ) ;
#65 = CC_DESIGN_PERSON_AND_ORGANIZATION_ASSIGNMENT ( #60, #99, ( #79 ) ) ;
#66 = APPROVAL_DATE_TIME ( #84, #136 ) ;
#67 = DATE_AND_TIME ( #4, #70 ) ;
#68 = ORIENTED_EDGE ( 'NONE', *, *, #51, .F. ) ;
#69 = CYLINDRICAL_SURFACE ( 'NONE', #182, 2.099999999999976996 ) ;
#70 = LOCAL_TIME ( 11, 33, 57.00000000000000000, #25 ) ;
#71 = CARTESIAN_POINT ( 'NONE',  ( 1.271767578222434200E-13, 4.460760183943978390E-14, 36.42487113059642923 ) ) ;
#72 = FACE_OUTER_BOUND ( 'NONE', #251, .T. ) ;
#73 = UNCERTAINTY_MEASURE_WITH_UNIT (LENGTH_MEASURE( 1.000000000000000082E-05 ), #3, 'distance_accuracy_value', 'NONE');
#74 = FACE_OUTER_BOUND ( 'NONE', #164, .T. ) ;
#75 = DIRECTION ( 'NONE',  ( -4.402125587170872751E-30, 1.000000000000000000, -1.239088197126304277E-15 ) ) ;
#76 = CARTESIAN_POINT ( 'NONE',  ( 2.128582095398294674E-15, 7.466060954848501138E-16, 0.6096501423958858856 ) ) ;
#77 = AXIS2_PLACEMENT_3D ( 'NONE', #15, #113, #234 ) ;
#78 = DIRECTION ( 'NONE',  ( 0.0000000000000000000, -1.000000000000000000, 0.0000000000000000000 ) ) ;
#79 = PRODUCT ( '62533', '62533', '', ( #102 ) ) ;
#80 = DIRECTION ( 'NONE',  ( -4.275831445896958607E-31, -1.000000000000000000, -1.224646799147353207E-16 ) ) ;
#81 = APPROVAL_PERSON_ORGANIZATION ( #124, #150, #147 ) ;
#82 = VERTEX_POINT ( 'NONE', #98 ) ;
#83 = AXIS2_PLACEMENT_3D ( 'NONE', #76, #200, #154 ) ;
#84 = DATE_AND_TIME ( #249, #197 ) ;
#85 = EDGE_LOOP ( 'NONE', ( #228 ) ) ;
#86 = ADVANCED_FACE ( 'NONE', ( #74 ), #133, .T. ) ;
#87 = AXIS2_PLACEMENT_3D ( 'NONE', #262, #196, #181 ) ;
#88 = PERSON_AND_ORGANIZATION_ROLE ( 'design_supplier' ) ;
#89 = ORIENTED_EDGE ( 'NONE', *, *, #177, .F. ) ;
#90 = CARTESIAN_POINT ( 'NONE',  ( 2.304377683636468267E-13, -8.082668874372532400E-15, 66.00000000000000000 ) ) ;
#91 = APPROVAL_PERSON_ORGANIZATION ( #139, #202, #183 ) ;
#92 = DIRECTION ( 'NONE',  ( -3.491481338843133355E-15, 1.224646799147353207E-16, -1.000000000000000000 ) ) ;
#93 = DIRECTION ( 'NONE',  ( -3.491481338843133355E-15, -1.224646799147354045E-15, -1.000000000000000000 ) ) ;
#94 = PRODUCT_RELATED_PRODUCT_CATEGORY ( 'detail', '', ( #79 ) ) ;
#95 = DESIGN_CONTEXT ( 'detailed design', #34, 'design' ) ;
#96 = AXIS2_PLACEMENT_3D ( 'NONE', #90, #214, #170 ) ;
#97 = DIRECTION ( 'NONE',  ( -3.491481338843133355E-15, -1.224646799147354045E-15, -1.000000000000000000 ) ) ;
#98 = CARTESIAN_POINT ( 'NONE',  ( 2.917574857689784264E-15, 2.100000000000000089, 0.8356266508520112657 ) ) ;
#99 = PERSON_AND_ORGANIZATION_ROLE ( 'design_owner' ) ;
#100 = DIRECTION ( 'NONE',  ( 3.491481338843133355E-15, -1.224646799147353207E-16, 1.000000000000000000 ) ) ;
#101 = DIRECTION ( 'NONE',  ( 0.0000000000000000000, 0.0000000000000000000, 1.000000000000000000 ) ) ;
#102 = MECHANICAL_CONTEXT ( 'NONE', #241, 'mechanical' ) ;
#103 = PERSON_AND_ORGANIZATION_ROLE ( 'classification_officer' ) ;
#104 = CC_DESIGN_APPROVAL ( #202, ( #199 ) ) ;
#105 = ORIENTED_EDGE ( 'NONE', *, *, #194, .T. ) ;
#106 = MANIFOLD_SOLID_BREP ( 'Corps-Déplacer/Copier1[2]', #195 ) ;
#107 = AXIS2_PLACEMENT_3D ( 'NONE', #229, #97, #75 ) ;
#108 = DATE_TIME_ROLE ( 'creation_date' ) ;
#109 = EDGE_LOOP ( 'NONE', ( #253 ) ) ;
#110 = EDGE_LOOP ( 'NONE', ( #186 ) ) ;
#111 = DIRECTION ( 'NONE',  ( -4.402125587170872751E-30, 1.000000000000000000, -1.239088197126304277E-15 ) ) ;
#112 = ORIENTED_EDGE ( 'NONE', *, *, #117, .F. ) ;
#113 = DIRECTION ( 'NONE',  ( -3.491481338843133355E-15, 1.224646799147353207E-16, -1.000000000000000000 ) ) ;
#114 = DIRECTION ( 'NONE',  ( -3.491481338843133355E-15, -1.224646799147354045E-15, -1.000000000000000000 ) ) ;
#115 = CIRCLE ( 'NONE', #40, 2.099999999999954348 ) ;
#116 = APPROVAL_STATUS ( 'not_yet_approved' ) ;
#117 = EDGE_CURVE ( 'NONE', #19, #19, #50, .T. ) ;
#118 = CARTESIAN_POINT ( 'NONE',  ( 1.047444401652940007E-13, 3.673940397442062649E-14, 30.00000000000000000 ) ) ;
#119 = CC_DESIGN_APPROVAL ( #136, ( #166 ) ) ;
#120 = AXIS2_PLACEMENT_3D ( 'NONE', #258, #93, #172 ) ;
#121 = CARTESIAN_POINT ( 'NONE',  ( 2.128582095398287180E-15, 1.674999999999999822, 0.6096501423958837762 ) ) ;
#122 = DATE_AND_TIME ( #48, #204 ) ;
#123 = AXIS2_PLACEMENT_3D ( 'NONE', #213, #259, #256 ) ;
#124 = PERSON_AND_ORGANIZATION ( #30, #235 ) ;
#125 = CALENDAR_DATE ( 2021, 15, 10 ) ;
#126 = AXIS2_PLACEMENT_3D ( 'NONE', #14, #92, #171 ) ;
#127 = AXIS2_PLACEMENT_3D ( 'NONE', #71, #230, #130 ) ;
#128 = ADVANCED_BREP_SHAPE_REPRESENTATION ( '62533', ( #22, #106, #29 ), #41 ) ;
#129 = FACE_OUTER_BOUND ( 'NONE', #109, .T. ) ;
#130 = DIRECTION ( 'NONE',  ( 7.043400939473420785E-30, -1.000000000000000000, 1.982541115402093706E-15 ) ) ;
#131 = CIRCLE ( 'NONE', #16, 2.999999999999997780 ) ;
#132 = EDGE_LOOP ( 'NONE', ( #89 ) ) ;
#133 = PLANE ( 'NONE',  #63 ) ;
#134 = DIRECTION ( 'NONE',  ( 4.369273903684477575E-30, -1.000000000000000000, 1.229841270282065352E-15 ) ) ;
#135 = CONICAL_SURFACE ( 'NONE', #137, 1.674999999999999156, 1.221730476396032161 ) ;
#136 = APPROVAL ( #145, 'UNSPECIFIED' ) ;
#137 = AXIS2_PLACEMENT_3D ( 'NONE', #55, #54, #134 ) ;
#138 = CYLINDRICAL_SURFACE ( 'NONE', #87, 2.999999999999997780 ) ;
#139 = PERSON_AND_ORGANIZATION ( #30, #235 ) ;
#140 = CC_DESIGN_DATE_AND_TIME_ASSIGNMENT ( #209, #62, ( #166 ) ) ;
#141 = SHAPE_DEFINITION_REPRESENTATION ( #227, #128 ) ;
#142 = CIRCLE ( 'NONE', #120, 2.099999999999999201 ) ;
#143 = ORIENTED_EDGE ( 'NONE', *, *, #225, .T. ) ;
#144 = PERSON_AND_ORGANIZATION ( #30, #235 ) ;
#145 = APPROVAL_STATUS ( 'not_yet_approved' ) ;
#146 = EDGE_CURVE ( 'NONE', #56, #56, #7, .T. ) ;
#147 = APPROVAL_ROLE ( '' ) ;
#148 = DIRECTION ( 'NONE',  ( 4.218703687705375141E-30, -1.000000000000000000, 1.239088197126291261E-15 ) ) ;
#149 = DIRECTION ( 'NONE',  ( -3.491481338843133355E-15, 1.224646799147353207E-16, -1.000000000000000000 ) ) ;
#150 = APPROVAL ( #162, 'UNSPECIFIED' ) ;
#151 = FACE_OUTER_BOUND ( 'NONE', #132, .T. ) ;
#152 = FACE_BOUND ( 'NONE', #46, .T. ) ;
#153 = DIRECTION ( 'NONE',  ( 3.491481338843133355E-15, 1.224646799147354045E-15, 1.000000000000000000 ) ) ;
#154 = DIRECTION ( 'NONE',  ( -4.369273903684477575E-30, 1.000000000000000000, -1.229841270282065352E-15 ) ) ;
#155 = VERTEX_POINT ( 'NONE', #242 ) ;
#156 = LOCAL_TIME ( 11, 33, 57.00000000000000000, #24 ) ;
#157 = DIRECTION ( 'NONE',  ( -3.491481338843133355E-15, 1.224646799147353207E-16, -1.000000000000000000 ) ) ;
#158 = CC_DESIGN_PERSON_AND_ORGANIZATION_ASSIGNMENT ( #64, #88, ( #9 ) ) ;
#159 = VERTEX_POINT ( 'NONE', #175 ) ;
#160 = ADVANCED_FACE ( 'NONE', ( #192 ), #135, .T. ) ;
#161 = ORIENTED_EDGE ( 'NONE', *, *, #146, .F. ) ;
#162 = APPROVAL_STATUS ( 'not_yet_approved' ) ;
#163 = COORDINATED_UNIVERSAL_TIME_OFFSET ( 1, 0, .AHEAD. ) ;
#164 = EDGE_LOOP ( 'NONE', ( #35 ) ) ;
#165 = ADVANCED_FACE ( 'NONE', ( #152, #257 ), #263, .T. ) ;
#166 = SECURITY_CLASSIFICATION ( '', '', #203 ) ;
#167 = APPROVAL_ROLE ( '' ) ;
#168 = EDGE_LOOP ( 'NONE', ( #143 ) ) ;
#169 = PLANE ( 'NONE',  #231 ) ;
#170 = DIRECTION ( 'NONE',  ( 0.0000000000000000000, 1.000000000000000000, 0.0000000000000000000 ) ) ;
#171 = DIRECTION ( 'NONE',  ( 0.0000000000000000000, 1.000000000000000000, 0.0000000000000000000 ) ) ;
#172 = DIRECTION ( 'NONE',  ( -4.218703687705375141E-30, 1.000000000000000000, -1.239088197126291261E-15 ) ) ;
#173 = CIRCLE ( 'NONE', #83, 1.674999999999999156 ) ;
#174 = DIRECTION ( 'NONE',  ( -4.275831445896958607E-31, -1.000000000000000000, -1.224646799147353207E-16 ) ) ;
#175 = CARTESIAN_POINT ( 'NONE',  ( 1.241530462859662691E-13, -2.999999999999954703, 35.55884572681207345 ) ) ;
#176 = APPLICATION_PROTOCOL_DEFINITION ( 'international standard', 'config_control_design', 1994, #34 ) ;
#177 = EDGE_CURVE ( 'NONE', #218, #218, #27, .T. ) ;
#178 = VERTEX_POINT ( 'NONE', #244 ) ;
#179 = DIRECTION ( 'NONE',  ( 1.000000000000000000, 0.0000000000000000000, 0.0000000000000000000 ) ) ;
#180 = CC_DESIGN_SECURITY_CLASSIFICATION ( #166, ( #9 ) ) ;
#181 = DIRECTION ( 'NONE',  ( 4.275831445896958607E-31, 1.000000000000000000, 1.224646799147353454E-16 ) ) ;
#182 = AXIS2_PLACEMENT_3D ( 'NONE', #190, #193, #111 ) ;
#183 = APPROVAL_ROLE ( '' ) ;
#184 = PERSON_AND_ORGANIZATION_ROLE ( 'creator' ) ;
#185 = CIRCLE ( 'NONE', #220, 2.099999999999976996 ) ;
#186 = ORIENTED_EDGE ( 'NONE', *, *, #194, .F. ) ;
#187 = PERSON_AND_ORGANIZATION_ROLE ( 'creator' ) ;
#188 = EDGE_LOOP ( 'NONE', ( #161 ) ) ;
#189 = CONICAL_SURFACE ( 'NONE', #255, 2.099999999999999201, 1.082104136236484937 ) ;
#190 = CARTESIAN_POINT ( 'NONE',  ( -3.491481338843130200E-15, -1.224646799147353059E-15, -0.9999999999999991118 ) ) ;
#191 = CARTESIAN_POINT ( 'NONE',  ( 1.187103655206665341E-13, 4.163799117101004504E-14, 34.00000000000000000 ) ) ;
#192 = FACE_OUTER_BOUND ( 'NONE', #168, .T. ) ;
#193 = DIRECTION ( 'NONE',  ( -3.491481338843133355E-15, -1.224646799147354045E-15, -1.000000000000000000 ) ) ;
#194 = EDGE_CURVE ( 'NONE', #82, #82, #142, .T. ) ;
#195 = CLOSED_SHELL ( 'NONE', ( #86, #160, #13, #43 ) ) ;
#196 = DIRECTION ( 'NONE',  ( -3.491481338843133355E-15, 1.224646799147353207E-16, -1.000000000000000000 ) ) ;
#197 = LOCAL_TIME ( 11, 33, 57.00000000000000000, #207 ) ;
#198 = PLANE ( 'NONE',  #59 ) ;
#199 = PRODUCT_DEFINITION ( 'UNKNOWN', '', #9, #95 ) ;
#200 = DIRECTION ( 'NONE',  ( -3.491481338843133355E-15, -1.224646799147354045E-15, -1.000000000000000000 ) ) ;
#201 = FACE_OUTER_BOUND ( 'NONE', #223, .T. ) ;
#202 = APPROVAL ( #116, 'UNSPECIFIED' ) ;
#203 = SECURITY_CLASSIFICATION_LEVEL ( 'unclassified' ) ;
#204 = LOCAL_TIME ( 11, 33, 57.00000000000000000, #44 ) ;
#205 = ORIENTED_EDGE ( 'NONE', *, *, #146, .T. ) ;
#206 = CC_DESIGN_DATE_AND_TIME_ASSIGNMENT ( #252, #108, ( #199 ) ) ;
#207 = COORDINATED_UNIVERSAL_TIME_OFFSET ( 1, 0, .AHEAD. ) ;
#208 = EDGE_LOOP ( 'NONE', ( #49 ) ) ;
#209 = DATE_AND_TIME ( #6, #42 ) ;
#210 = ORIENTED_EDGE ( 'NONE', *, *, #225, .F. ) ;
#211 = EDGE_CURVE ( 'NONE', #159, #159, #131, .T. ) ;
#212 = DIRECTION ( 'NONE',  ( 0.0000000000000000000, 1.000000000000000000, 0.0000000000000000000 ) ) ;
#213 = CARTESIAN_POINT ( 'NONE',  ( 2.304377683636468267E-13, -8.082668874372532400E-15, 66.00000000000000000 ) ) ;
#214 = DIRECTION ( 'NONE',  ( -3.491481338843133355E-15, 1.224646799147353207E-16, -1.000000000000000000 ) ) ;
#215 = CARTESIAN_POINT ( 'NONE',  ( 1.241530462859662438E-13, 4.354702660071497318E-14, 35.55884572681206635 ) ) ;
#216 = FACE_BOUND ( 'NONE', #5, .T. ) ;
#217 = ADVANCED_FACE ( 'NONE', ( #201, #58 ), #138, .T. ) ;
#218 = VERTEX_POINT ( 'NONE', #38 ) ;
#219 =( NAMED_UNIT ( * ) PLANE_ANGLE_UNIT ( ) SI_UNIT ( $, .RADIAN. ) );
#220 = AXIS2_PLACEMENT_3D ( 'NONE', #118, #157, #78 ) ;
#221 = CARTESIAN_POINT ( 'NONE',  ( 2.304377683636468267E-13, 2.299999999999992273, 66.00000000000000000 ) ) ;
#222 = APPROVAL_DATE_TIME ( #122, #202 ) ;
#223 = EDGE_LOOP ( 'NONE', ( #28 ) ) ;
#224 = PERSON_AND_ORGANIZATION ( #30, #235 ) ;
#225 = EDGE_CURVE ( 'NONE', #239, #239, #173, .T. ) ;
#226 = EDGE_LOOP ( 'NONE', ( #105 ) ) ;
#227 = PRODUCT_DEFINITION_SHAPE ( 'NONE', 'NONE',  #199 ) ;
#228 = ORIENTED_EDGE ( 'NONE', *, *, #211, .F. ) ;
#229 = CARTESIAN_POINT ( 'NONE',  ( -3.491481338843130200E-15, -1.224646799147353059E-15, -0.9999999999999991118 ) ) ;
#230 = DIRECTION ( 'NONE',  ( 3.491481338843133355E-15, 1.224646799147354045E-15, 1.000000000000000000 ) ) ;
#231 = AXIS2_PLACEMENT_3D ( 'NONE', #232, #149, #31 ) ;
#232 = CARTESIAN_POINT ( 'NONE',  ( 2.304377683636468267E-13, 1.724723750061123933E-32, 66.00000000000000000 ) ) ;
#233 = CC_DESIGN_PERSON_AND_ORGANIZATION_ASSIGNMENT ( #250, #103, ( #166 ) ) ;
#234 = DIRECTION ( 'NONE',  ( 0.0000000000000000000, -1.000000000000000000, 0.0000000000000000000 ) ) ;
#235 = ORGANIZATION ( 'UNSPECIFIED', 'UNSPECIFIED', '' ) ;
#236 = APPROVAL_PERSON_ORGANIZATION ( #144, #136, #167 ) ;
#237 = CARTESIAN_POINT ( 'NONE',  ( 2.917574857689793336E-15, 1.023347503248142479E-15, 0.8356266508520139302 ) ) ;
#238 = EDGE_CURVE ( 'NONE', #178, #178, #185, .T. ) ;
#239 = VERTEX_POINT ( 'NONE', #121 ) ;
#240 = CLOSED_SHELL ( 'NONE', ( #217, #18, #23, #36, #165, #248 ) ) ;
#241 = APPLICATION_CONTEXT ( 'configuration controlled 3d designs of mechanical parts and assemblies' ) ;
#242 = CARTESIAN_POINT ( 'NONE',  ( 1.187103655206665341E-13, 2.099999999999996092, 34.00000000000000000 ) ) ;
#243 = CARTESIAN_POINT ( 'NONE',  ( 1.047444401652940007E-13, 2.249639673992777927E-32, 30.00000000000000000 ) ) ;
#244 = CARTESIAN_POINT ( 'NONE',  ( 1.047444401652940007E-13, -2.099999999999940137, 30.00000000000000000 ) ) ;
#245 = CONICAL_SURFACE ( 'NONE', #123, 2.300000000000000266, 0.7853981633974437271 ) ;
#246 = ORIENTED_EDGE ( 'NONE', *, *, #177, .T. ) ;
#247 = APPROVAL_DATE_TIME ( #67, #150 ) ;
#248 = ADVANCED_FACE ( 'NONE', ( #20 ), #198, .F. ) ;
#249 = CALENDAR_DATE ( 2021, 15, 10 ) ;
#250 = PERSON_AND_ORGANIZATION ( #30, #235 ) ;
#251 = EDGE_LOOP ( 'NONE', ( #26 ) ) ;
#252 = DATE_AND_TIME ( #125, #156 ) ;
#253 = ORIENTED_EDGE ( 'NONE', *, *, #51, .T. ) ;
#254 = CC_DESIGN_PERSON_AND_ORGANIZATION_ASSIGNMENT ( #8, #184, ( #9 ) ) ;
#255 = AXIS2_PLACEMENT_3D ( 'NONE', #237, #153, #148 ) ;
#256 = DIRECTION ( 'NONE',  ( 0.0000000000000000000, 1.000000000000000000, 0.0000000000000000000 ) ) ;
#257 = FACE_OUTER_BOUND ( 'NONE', #85, .T. ) ;
#258 = CARTESIAN_POINT ( 'NONE',  ( 2.917574857689793336E-15, 1.023347503248142479E-15, 0.8356266508520139302 ) ) ;
#259 = DIRECTION ( 'NONE',  ( -3.491481338843133355E-15, 1.224646799147353207E-16, -1.000000000000000000 ) ) ;
#260 = FACE_OUTER_BOUND ( 'NONE', #110, .T. ) ;
#261 = DIRECTION ( 'NONE',  ( 8.217301096052212846E-30, -1.000000000000000000, 2.312964634635744633E-15 ) ) ;
#262 = CARTESIAN_POINT ( 'NONE',  ( 0.0000000000000000000, 0.0000000000000000000, 0.0000000000000000000 ) ) ;
#263 = CONICAL_SURFACE ( 'NONE', #127, 3.499999999999949818, 0.5235987755982981495 ) ;
ENDSEC;
END-ISO-10303-21;
