ISO-10303-21;
HEADER;
FILE_DESCRIPTION (( 'STEP AP203' ),
    '1' );
FILE_NAME ('62532.step',
    '2021-10-15T09:33:56',
    ( '' ),
    ( '' ),
    'SwSTEP 2.0',
    'SolidWorks 2019',
    '' );
FILE_SCHEMA (( 'CONFIG_CONTROL_DESIGN' ));
ENDSEC;

DATA;
#1 = AXIS2_PLACEMENT_3D ( 'NONE', #195, #219, #240 ) ;
#2 = ADVANCED_FACE ( 'NONE', ( #62, #126 ), #215, .T. ) ;
#3 = CARTESIAN_POINT ( 'NONE',  ( -3.491481338843130200E-15, -1.224646799147353059E-15, -0.9999999999999991118 ) ) ;
#4 = COORDINATED_UNIVERSAL_TIME_OFFSET ( 1, 0, .AHEAD. ) ;
#5 = VERTEX_POINT ( 'NONE', #250 ) ;
#6 = CALENDAR_DATE ( 2021, 15, 10 ) ;
#7 = PERSON_AND_ORGANIZATION ( #171, #124 ) ;
#8 = AXIS2_PLACEMENT_3D ( 'NONE', #51, #25, #183 ) ;
#9 = CC_DESIGN_DATE_AND_TIME_ASSIGNMENT ( #233, #131, ( #59 ) ) ;
#10 = SHAPE_DEFINITION_REPRESENTATION ( #11, #44 ) ;
#11 = PRODUCT_DEFINITION_SHAPE ( 'NONE', 'NONE',  #59 ) ;
#12 = EDGE_LOOP ( 'NONE', ( #76 ) ) ;
#13 = CLOSED_SHELL ( 'NONE', ( #91, #172, #41, #2, #103, #217 ) ) ;
#14 = AXIS2_PLACEMENT_3D ( 'NONE', #18, #102, #177 ) ;
#15 = CC_DESIGN_PERSON_AND_ORGANIZATION_ASSIGNMENT ( #28, #74, ( #162 ) ) ;
#16 = DIRECTION ( 'NONE',  ( 3.491481338843133355E-15, 1.224646799147354045E-15, 1.000000000000000000 ) ) ;
#17 = DIRECTION ( 'NONE',  ( 4.237045877651921679E-30, -1.000000000000000000, 1.246832498358330888E-15 ) ) ;
#18 = CARTESIAN_POINT ( 'NONE',  ( 2.279937314264566018E-13, -7.996943598432214956E-15, 65.29999999999999716 ) ) ;
#19 = AXIS2_PLACEMENT_3D ( 'NONE', #226, #128, #71 ) ;
#20 = FACE_OUTER_BOUND ( 'NONE', #53, .T. ) ;
#21 = DIRECTION ( 'NONE',  ( 0.0000000000000000000, -1.000000000000000000, 0.0000000000000000000 ) ) ;
#22 = CONICAL_SURFACE ( 'NONE', #117, 1.599999999999999201, 1.221730476396032161 ) ;
#24 = CARTESIAN_POINT ( 'NONE',  ( 1.247577885932217447E-13, -2.999999999999954259, 35.73205080756896734 ) ) ;
#23 = UNCERTAINTY_MEASURE_WITH_UNIT (LENGTH_MEASURE( 1.000000000000000082E-05 ), #232, 'distance_accuracy_value', 'NONE');
#25 = DIRECTION ( 'NONE',  ( 0.0000000000000000000, 0.0000000000000000000, 1.000000000000000000 ) ) ;
#26 = FACE_OUTER_BOUND ( 'NONE', #12, .T. ) ;
#27 = VERTEX_POINT ( 'NONE', #45 ) ;
#28 = PERSON_AND_ORGANIZATION ( #171, #124 ) ;
#29 = CALENDAR_DATE ( 2021, 15, 10 ) ;
#30 = ORIENTED_EDGE ( 'NONE', *, *, #64, .T. ) ;
#31 = DATE_AND_TIME ( #6, #52 ) ;
#32 = CC_DESIGN_APPROVAL ( #225, ( #162 ) ) ;
#33 = APPROVAL_ROLE ( '' ) ;
#34 = EDGE_LOOP ( 'NONE', ( #104 ) ) ;
#35 = CIRCLE ( 'NONE', #19, 1.999999999999998668 ) ;
#36 = EDGE_LOOP ( 'NONE', ( #253 ) ) ;
#37 = CARTESIAN_POINT ( 'NONE',  ( 2.775853872668857280E-15, 9.736384732306984464E-16, 0.7950361474905114356 ) ) ;
#38 = CARTESIAN_POINT ( 'NONE',  ( 2.304377683636468267E-13, -8.082668874372532400E-15, 66.00000000000000000 ) ) ;
#39 = DIRECTION ( 'NONE',  ( 4.333342374871282771E-30, -1.000000000000000000, 1.219727444046193080E-15 ) ) ;
#40 = ORIENTED_EDGE ( 'NONE', *, *, #100, .T. ) ;
#41 = ADVANCED_FACE ( 'NONE', ( #255 ), #89, .F. ) ;
#42 = AXIS2_PLACEMENT_3D ( 'NONE', #37, #257, #17 ) ;
#43 = CARTESIAN_POINT ( 'NONE',  ( 1.047444401652940007E-13, 2.249639673992777927E-32, 30.00000000000000000 ) ) ;
#44 = ADVANCED_BREP_SHAPE_REPRESENTATION ( '62532', ( #191, #213, #8 ), #164 ) ;
#45 = CARTESIAN_POINT ( 'NONE',  ( 1.047444401652940007E-13, -1.999999999999939826, 30.00000000000000000 ) ) ;
#46 = APPROVAL_DATE_TIME ( #119, #130 ) ;
#47 = LOCAL_TIME ( 11, 33, 56.00000000000000000, #48 ) ;
#48 = COORDINATED_UNIVERSAL_TIME_OFFSET ( 1, 0, .AHEAD. ) ;
#49 = CARTESIAN_POINT ( 'NONE',  ( 2.304377683636468267E-13, -8.082668874372532400E-15, 66.00000000000000000 ) ) ;
#50 = MECHANICAL_CONTEXT ( 'NONE', #144, 'mechanical' ) ;
#51 = CARTESIAN_POINT ( 'NONE',  ( 0.0000000000000000000, 0.0000000000000000000, 0.0000000000000000000 ) ) ;
#52 = LOCAL_TIME ( 11, 33, 56.00000000000000000, #234 ) ;
#53 = EDGE_LOOP ( 'NONE', ( #30 ) ) ;
#54 = ADVANCED_FACE ( 'NONE', ( #20 ), #22, .T. ) ;
#55 = EDGE_LOOP ( 'NONE', ( #159 ) ) ;
#56 = ORIENTED_EDGE ( 'NONE', *, *, #244, .T. ) ;
#57 = CIRCLE ( 'NONE', #201, 1.999999999999976685 ) ;
#58 = DIRECTION ( 'NONE',  ( -3.491481338843133355E-15, 1.224646799147353207E-16, -1.000000000000000000 ) ) ;
#59 = PRODUCT_DEFINITION ( 'UNKNOWN', '', #162, #165 ) ;
#60 = DIRECTION ( 'NONE',  ( -3.491481338843133355E-15, 1.224646799147353207E-16, -1.000000000000000000 ) ) ;
#61 = ORIENTED_EDGE ( 'NONE', *, *, #81, .T. ) ;
#62 = FACE_OUTER_BOUND ( 'NONE', #133, .T. ) ;
#63 = AXIS2_PLACEMENT_3D ( 'NONE', #66, #90, #137 ) ;
#64 = EDGE_CURVE ( 'NONE', #248, #248, #254, .T. ) ;
#65 = FACE_OUTER_BOUND ( 'NONE', #36, .T. ) ;
#66 = CARTESIAN_POINT ( 'NONE',  ( 1.047444401652940007E-13, 2.249639673992777927E-32, 30.00000000000000000 ) ) ;
#67 = VERTEX_POINT ( 'NONE', #24 ) ;
#68 = AXIS2_PLACEMENT_3D ( 'NONE', #80, #178, #21 ) ;
#69 = AXIS2_PLACEMENT_3D ( 'NONE', #38, #122, #198 ) ;
#70 = APPROVAL_STATUS ( 'not_yet_approved' ) ;
#71 = DIRECTION ( 'NONE',  ( -4.237045877651921679E-30, 1.000000000000000000, -1.246832498358330888E-15 ) ) ;
#72 = APPROVAL_DATE_TIME ( #31, #179 ) ;
#73 = PLANE ( 'NONE',  #236 ) ;
#74 = PERSON_AND_ORGANIZATION_ROLE ( 'design_supplier' ) ;
#75 = APPROVAL_ROLE ( '' ) ;
#76 = ORIENTED_EDGE ( 'NONE', *, *, #127, .T. ) ;
#77 = PERSON_AND_ORGANIZATION ( #171, #124 ) ;
#78 = EDGE_LOOP ( 'NONE', ( #138 ) ) ;
#79 = CONICAL_SURFACE ( 'NONE', #1, 3.499999999999949818, 0.5235987755982978165 ) ;
#80 = CARTESIAN_POINT ( 'NONE',  ( 1.047444401652940007E-13, 3.673940397442062649E-14, 30.00000000000000000 ) ) ;
#81 = EDGE_CURVE ( 'NONE', #229, #229, #173, .T. ) ;
#82 = CONICAL_SURFACE ( 'NONE', #42, 1.999999999999998668, 1.082104136236485381 ) ;
#83 = CARTESIAN_POINT ( 'NONE',  ( 2.304377683636468267E-13, 1.724723750061123933E-32, 66.00000000000000000 ) ) ;
#84 = FACE_OUTER_BOUND ( 'NONE', #34, .T. ) ;
#85 = CARTESIAN_POINT ( 'NONE',  ( 1.047444401652940007E-13, 3.673940397442062649E-14, 30.00000000000000000 ) ) ;
#86 = CC_DESIGN_PERSON_AND_ORGANIZATION_ASSIGNMENT ( #147, #94, ( #207 ) ) ;
#87 = AXIS2_PLACEMENT_3D ( 'NONE', #220, #60, #243 ) ;
#88 = CC_DESIGN_APPROVAL ( #179, ( #207 ) ) ;
#89 = PLANE ( 'NONE',  #139 ) ;
#90 = DIRECTION ( 'NONE',  ( 3.491481338843133355E-15, -1.224646799147353207E-16, 1.000000000000000000 ) ) ;
#91 = ADVANCED_FACE ( 'NONE', ( #199, #99 ), #105, .T. ) ;
#92 = APPROVAL_PERSON_ORGANIZATION ( #210, #225, #75 ) ;
#93 = APPLICATION_PROTOCOL_DEFINITION ( 'international standard', 'config_control_design', 1994, #144 ) ;
#94 = PERSON_AND_ORGANIZATION_ROLE ( 'classification_officer' ) ;
#95 = DIRECTION ( 'NONE',  ( -4.275831445896958607E-31, -1.000000000000000000, -1.224646799147353207E-16 ) ) ;
#96 = APPROVAL_STATUS ( 'not_yet_approved' ) ;
#97 = EDGE_LOOP ( 'NONE', ( #192 ) ) ;
#98 = AXIS2_PLACEMENT_3D ( 'NONE', #260, #16, #125 ) ;
#99 = FACE_OUTER_BOUND ( 'NONE', #237, .T. ) ;
#100 = EDGE_CURVE ( 'NONE', #27, #27, #158, .T. ) ;
#101 = FACE_OUTER_BOUND ( 'NONE', #78, .T. ) ;
#102 = DIRECTION ( 'NONE',  ( -3.491481338843133355E-15, 1.224646799147353207E-16, -1.000000000000000000 ) ) ;
#103 = ADVANCED_FACE ( 'NONE', ( #261, #65 ), #79, .T. ) ;
#104 = ORIENTED_EDGE ( 'NONE', *, *, #263, .F. ) ;
#105 = CYLINDRICAL_SURFACE ( 'NONE', #87, 2.999999999999997780 ) ;
#106 = CLOSED_SHELL ( 'NONE', ( #221, #54, #150, #197 ) ) ;
#107 = CARTESIAN_POINT ( 'NONE',  ( 2.033272449335676917E-15, 1.599999999999999867, 0.5823523748259187283 ) ) ;
#108 = DIRECTION ( 'NONE',  ( -3.491481338843133355E-15, -1.224646799147354045E-15, -1.000000000000000000 ) ) ;
#109 = EDGE_CURVE ( 'NONE', #67, #67, #206, .T. ) ;
#110 = CARTESIAN_POINT ( 'NONE',  ( 2.279937314264566018E-13, 2.999999999999992450, 65.29999999999999716 ) ) ;
#111 = CALENDAR_DATE ( 2021, 15, 10 ) ;
#112 = CC_DESIGN_PERSON_AND_ORGANIZATION_ASSIGNMENT ( #193, #231, ( #59 ) ) ;
#113 = DATE_AND_TIME ( #188, #182 ) ;
#114 = EDGE_LOOP ( 'NONE', ( #151 ) ) ;
#115 = SECURITY_CLASSIFICATION_LEVEL ( 'unclassified' ) ;
#116 = EDGE_LOOP ( 'NONE', ( #214 ) ) ;
#117 = AXIS2_PLACEMENT_3D ( 'NONE', #160, #200, #39 ) ;
#118 = ORIENTED_EDGE ( 'NONE', *, *, #109, .T. ) ;
#119 = DATE_AND_TIME ( #29, #140 ) ;
#120 = CARTESIAN_POINT ( 'NONE',  ( 2.033272449335684017E-15, 7.131759718064237494E-16, 0.5823523748259207267 ) ) ;
#121 = DIRECTION ( 'NONE',  ( -3.491481338843133355E-15, -1.224646799147354045E-15, -1.000000000000000000 ) ) ;
#122 = DIRECTION ( 'NONE',  ( -3.491481338843133355E-15, 1.224646799147353207E-16, -1.000000000000000000 ) ) ;
#123 = AXIS2_PLACEMENT_3D ( 'NONE', #241, #121, #157 ) ;
#124 = ORGANIZATION ( 'UNSPECIFIED', 'UNSPECIFIED', '' ) ;
#125 = DIRECTION ( 'NONE',  ( 8.217301096052212846E-30, -1.000000000000000000, 2.312964634635744633E-15 ) ) ;
#126 = FACE_OUTER_BOUND ( 'NONE', #116, .T. ) ;
#127 = EDGE_CURVE ( 'NONE', #129, #129, #57, .T. ) ;
#128 = DIRECTION ( 'NONE',  ( -3.491481338843133355E-15, -1.224646799147354045E-15, -1.000000000000000000 ) ) ;
#129 = VERTEX_POINT ( 'NONE', #185 ) ;
#130 = APPROVAL ( #170, 'UNSPECIFIED' ) ;
#131 = DATE_TIME_ROLE ( 'creation_date' ) ;
#132 = DIRECTION ( 'NONE',  ( 3.491481338843133355E-15, -1.224646799147353207E-16, 1.000000000000000000 ) ) ;
#133 = EDGE_LOOP ( 'NONE', ( #61 ) ) ;
#134 = LOCAL_TIME ( 11, 33, 56.00000000000000000, #149 ) ;
#135 = ORIENTED_EDGE ( 'NONE', *, *, #64, .F. ) ;
#136 = ORIENTED_EDGE ( 'NONE', *, *, #187, .T. ) ;
#137 = DIRECTION ( 'NONE',  ( -4.275831445896958607E-31, -1.000000000000000000, -1.224646799147353207E-16 ) ) ;
#138 = ORIENTED_EDGE ( 'NONE', *, *, #187, .F. ) ;
#139 = AXIS2_PLACEMENT_3D ( 'NONE', #83, #145, #239 ) ;
#140 = LOCAL_TIME ( 11, 33, 56.00000000000000000, #190 ) ;
#141 = DIRECTION ( 'NONE',  ( 0.0000000000000000000, -1.000000000000000000, 0.0000000000000000000 ) ) ;
#142 = CARTESIAN_POINT ( 'NONE',  ( -3.491481338843130200E-15, -1.224646799147353059E-15, -0.9999999999999991118 ) ) ;
#143 = DIRECTION ( 'NONE',  ( -4.237045877651967922E-30, 1.000000000000000000, -1.192622389734068682E-15 ) ) ;
#144 = APPLICATION_CONTEXT ( 'configuration controlled 3d designs of mechanical parts and assemblies' ) ;
#145 = DIRECTION ( 'NONE',  ( -3.491481338843133355E-15, 1.224646799147353207E-16, -1.000000000000000000 ) ) ;
#146 = FACE_OUTER_BOUND ( 'NONE', #97, .T. ) ;
#147 = PERSON_AND_ORGANIZATION ( #171, #124 ) ;
#148 = AXIS2_PLACEMENT_3D ( 'NONE', #49, #245, #227 ) ;
#149 = COORDINATED_UNIVERSAL_TIME_OFFSET ( 1, 0, .AHEAD. ) ;
#150 = ADVANCED_FACE ( 'NONE', ( #218, #196 ), #82, .T. ) ;
#151 = ORIENTED_EDGE ( 'NONE', *, *, #244, .F. ) ;
#152 = APPROVAL_DATE_TIME ( #252, #225 ) ;
#153 = PRODUCT ( '62532', '62532', '', ( #50 ) ) ;
#154 = EDGE_LOOP ( 'NONE', ( #40 ) ) ;
#155 = CC_DESIGN_PERSON_AND_ORGANIZATION_ASSIGNMENT ( #7, #251, ( #153 ) ) ;
#156 = APPLICATION_CONTEXT ( 'configuration controlled 3d designs of mechanical parts and assemblies' ) ;
#157 = DIRECTION ( 'NONE',  ( 0.0000000000000000000, 1.000000000000000000, 0.0000000000000000000 ) ) ;
#158 = CIRCLE ( 'NONE', #68, 1.999999999999976685 ) ;
#159 = ORIENTED_EDGE ( 'NONE', *, *, #263, .T. ) ;
#160 = CARTESIAN_POINT ( 'NONE',  ( 2.033272449335684017E-15, 7.131759718064237494E-16, 0.5823523748259207267 ) ) ;
#161 = AXIS2_PLACEMENT_3D ( 'NONE', #142, #174, #143 ) ;
#162 = PRODUCT_DEFINITION_FORMATION_WITH_SPECIFIED_SOURCE ( 'ANY', '', #153, .NOT_KNOWN. ) ;
#163 = DIRECTION ( 'NONE',  ( -3.491481338843133355E-15, -1.224646799147354045E-15, -1.000000000000000000 ) ) ;
#164 =( GEOMETRIC_REPRESENTATION_CONTEXT ( 3 ) GLOBAL_UNCERTAINTY_ASSIGNED_CONTEXT ( ( #23 ) ) GLOBAL_UNIT_ASSIGNED_CONTEXT ( ( #232, #262, #205 ) ) REPRESENTATION_CONTEXT ( 'NONE', 'WORKASPACE' ) );
#165 = DESIGN_CONTEXT ( 'detailed design', #156, 'design' ) ;
#166 = PERSON_AND_ORGANIZATION_ROLE ( 'creator' ) ;
#167 = DIRECTION ( 'NONE',  ( -4.237045877651967922E-30, 1.000000000000000000, -1.192622389734068682E-15 ) ) ;
#168 = DATE_TIME_ROLE ( 'classification_date' ) ;
#169 = EDGE_LOOP ( 'NONE', ( #135 ) ) ;
#170 = APPROVAL_STATUS ( 'not_yet_approved' ) ;
#171 = PERSON ( 'UNSPECIFIED', 'UNSPECIFIED', 'UNSPECIFIED', ('UNSPECIFIED'), ('UNSPECIFIED'), ('UNSPECIFIED') ) ;
#172 = ADVANCED_FACE ( 'NONE', ( #101, #175 ), #256, .T. ) ;
#173 = CIRCLE ( 'NONE', #123, 1.999999999999954037 ) ;
#174 = DIRECTION ( 'NONE',  ( -3.491481338843133355E-15, -1.224646799147354045E-15, -1.000000000000000000 ) ) ;
#175 = FACE_BOUND ( 'NONE', #212, .T. ) ;
#176 = CC_DESIGN_PERSON_AND_ORGANIZATION_ASSIGNMENT ( #77, #166, ( #162 ) ) ;
#177 = DIRECTION ( 'NONE',  ( 0.0000000000000000000, 1.000000000000000000, 0.0000000000000000000 ) ) ;
#178 = DIRECTION ( 'NONE',  ( -3.491481338843133355E-15, 1.224646799147353207E-16, -1.000000000000000000 ) ) ;
#179 = APPROVAL ( #96, 'UNSPECIFIED' ) ;
#180 = APPROVAL_PERSON_ORGANIZATION ( #249, #179, #186 ) ;
#181 = VERTEX_POINT ( 'NONE', #202 ) ;
#182 = LOCAL_TIME ( 11, 33, 56.00000000000000000, #4 ) ;
#183 = DIRECTION ( 'NONE',  ( 1.000000000000000000, 0.0000000000000000000, 0.0000000000000000000 ) ) ;
#184 = PLANE ( 'NONE',  #63 ) ;
#185 = CARTESIAN_POINT ( 'NONE',  ( 1.047444401652940007E-13, -1.999999999999939826, 30.00000000000000000 ) ) ;
#186 = APPROVAL_ROLE ( '' ) ;
#187 = EDGE_CURVE ( 'NONE', #204, #204, #224, .T. ) ;
#188 = CALENDAR_DATE ( 2021, 15, 10 ) ;
#189 = AXIS2_PLACEMENT_3D ( 'NONE', #120, #163, #242 ) ;
#190 = COORDINATED_UNIVERSAL_TIME_OFFSET ( 1, 0, .AHEAD. ) ;
#191 = MANIFOLD_SOLID_BREP ( 'Corps-Déplacer/Copier1[1]', #13 ) ;
#192 = ORIENTED_EDGE ( 'NONE', *, *, #100, .F. ) ;
#193 = PERSON_AND_ORGANIZATION ( #171, #124 ) ;
#194 = APPROVAL_PERSON_ORGANIZATION ( #208, #130, #33 ) ;
#195 = CARTESIAN_POINT ( 'NONE',  ( 1.277815001294989208E-13, 4.481971688718476751E-14, 36.59807621135331601 ) ) ;
#196 = FACE_OUTER_BOUND ( 'NONE', #55, .T. ) ;
#197 = ADVANCED_FACE ( 'NONE', ( #259, #84 ), #203, .T. ) ;
#198 = DIRECTION ( 'NONE',  ( 0.0000000000000000000, 1.000000000000000000, 0.0000000000000000000 ) ) ;
#199 = FACE_OUTER_BOUND ( 'NONE', #235, .T. ) ;
#200 = DIRECTION ( 'NONE',  ( 3.491481338843133355E-15, 1.224646799147354045E-15, 1.000000000000000000 ) ) ;
#201 = AXIS2_PLACEMENT_3D ( 'NONE', #85, #58, #141 ) ;
#202 = CARTESIAN_POINT ( 'NONE',  ( 2.304377683636468267E-13, 2.299999999999992273, 66.00000000000000000 ) ) ;
#203 = CYLINDRICAL_SURFACE ( 'NONE', #216, 1.999999999999976685 ) ;
#204 = VERTEX_POINT ( 'NONE', #110 ) ;
#205 =( NAMED_UNIT ( * ) SI_UNIT ( $, .STERADIAN. ) SOLID_ANGLE_UNIT ( ) );
#206 = CIRCLE ( 'NONE', #98, 2.999999999999997780 ) ;
#207 = SECURITY_CLASSIFICATION ( '', '', #115 ) ;
#208 = PERSON_AND_ORGANIZATION ( #171, #124 ) ;
#209 = ORIENTED_EDGE ( 'NONE', *, *, #81, .F. ) ;
#210 = PERSON_AND_ORGANIZATION ( #171, #124 ) ;
#211 = APPLICATION_PROTOCOL_DEFINITION ( 'international standard', 'config_control_design', 1994, #156 ) ;
#212 = EDGE_LOOP ( 'NONE', ( #56 ) ) ;
#213 = MANIFOLD_SOLID_BREP ( 'Corps-Déplacer/Copier1[2]', #106 ) ;
#214 = ORIENTED_EDGE ( 'NONE', *, *, #127, .F. ) ;
#215 = CYLINDRICAL_SURFACE ( 'NONE', #161, 1.999999999999976685 ) ;
#216 = AXIS2_PLACEMENT_3D ( 'NONE', #3, #108, #167 ) ;
#217 = ADVANCED_FACE ( 'NONE', ( #26 ), #184, .F. ) ;
#218 = FACE_BOUND ( 'NONE', #169, .T. ) ;
#219 = DIRECTION ( 'NONE',  ( 3.491481338843133355E-15, 1.224646799147354045E-15, 1.000000000000000000 ) ) ;
#220 = CARTESIAN_POINT ( 'NONE',  ( 0.0000000000000000000, 0.0000000000000000000, 0.0000000000000000000 ) ) ;
#221 = ADVANCED_FACE ( 'NONE', ( #146 ), #73, .T. ) ;
#222 = CIRCLE ( 'NONE', #148, 2.300000000000000266 ) ;
#223 = CARTESIAN_POINT ( 'NONE',  ( 1.187103655206665341E-13, 1.999999999999995781, 34.00000000000000000 ) ) ;
#224 = CIRCLE ( 'NONE', #14, 3.000000000000000000 ) ;
#225 = APPROVAL ( #70, 'UNSPECIFIED' ) ;
#226 = CARTESIAN_POINT ( 'NONE',  ( 2.775853872668857280E-15, 9.736384732306984464E-16, 0.7950361474905114356 ) ) ;
#227 = DIRECTION ( 'NONE',  ( 0.0000000000000000000, 1.000000000000000000, 0.0000000000000000000 ) ) ;
#228 = CALENDAR_DATE ( 2021, 15, 10 ) ;
#229 = VERTEX_POINT ( 'NONE', #223 ) ;
#230 = PRODUCT_RELATED_PRODUCT_CATEGORY ( 'detail', '', ( #153 ) ) ;
#231 = PERSON_AND_ORGANIZATION_ROLE ( 'creator' ) ;
#232 =( LENGTH_UNIT ( ) NAMED_UNIT ( * ) SI_UNIT ( .MILLI., .METRE. ) );
#233 = DATE_AND_TIME ( #228, #134 ) ;
#234 = COORDINATED_UNIVERSAL_TIME_OFFSET ( 1, 0, .AHEAD. ) ;
#235 = EDGE_LOOP ( 'NONE', ( #118 ) ) ;
#236 = AXIS2_PLACEMENT_3D ( 'NONE', #43, #132, #95 ) ;
#237 = EDGE_LOOP ( 'NONE', ( #136 ) ) ;
#238 = EDGE_LOOP ( 'NONE', ( #209 ) ) ;
#239 = DIRECTION ( 'NONE',  ( 4.275831445896958607E-31, 1.000000000000000000, 1.224646799147353207E-16 ) ) ;
#240 = DIRECTION ( 'NONE',  ( 7.043400939473420785E-30, -1.000000000000000000, 1.982541115402093706E-15 ) ) ;
#241 = CARTESIAN_POINT ( 'NONE',  ( 1.187103655206665341E-13, 4.163799117101004504E-14, 34.00000000000000000 ) ) ;
#242 = DIRECTION ( 'NONE',  ( -4.333342374871282771E-30, 1.000000000000000000, -1.219727444046193080E-15 ) ) ;
#243 = DIRECTION ( 'NONE',  ( 4.275831445896958607E-31, 1.000000000000000000, 1.224646799147353454E-16 ) ) ;
#244 = EDGE_CURVE ( 'NONE', #181, #181, #222, .T. ) ;
#245 = DIRECTION ( 'NONE',  ( -3.491481338843133355E-15, 1.224646799147353207E-16, -1.000000000000000000 ) ) ;
#246 = CC_DESIGN_APPROVAL ( #130, ( #59 ) ) ;
#247 = CC_DESIGN_DATE_AND_TIME_ASSIGNMENT ( #113, #168, ( #207 ) ) ;
#248 = VERTEX_POINT ( 'NONE', #107 ) ;
#249 = PERSON_AND_ORGANIZATION ( #171, #124 ) ;
#250 = CARTESIAN_POINT ( 'NONE',  ( 2.775853872668848997E-15, 1.999999999999999556, 0.7950361474905088821 ) ) ;
#251 = PERSON_AND_ORGANIZATION_ROLE ( 'design_owner' ) ;
#252 = DATE_AND_TIME ( #111, #47 ) ;
#253 = ORIENTED_EDGE ( 'NONE', *, *, #109, .F. ) ;
#254 = CIRCLE ( 'NONE', #189, 1.599999999999999201 ) ;
#255 = FACE_OUTER_BOUND ( 'NONE', #114, .T. ) ;
#256 = CONICAL_SURFACE ( 'NONE', #69, 2.300000000000000266, 0.7853981633974437271 ) ;
#257 = DIRECTION ( 'NONE',  ( 3.491481338843133355E-15, 1.224646799147354045E-15, 1.000000000000000000 ) ) ;
#258 = CC_DESIGN_SECURITY_CLASSIFICATION ( #207, ( #162 ) ) ;
#259 = FACE_OUTER_BOUND ( 'NONE', #154, .T. ) ;
#260 = CARTESIAN_POINT ( 'NONE',  ( 1.247577885932217194E-13, 4.375914164845995678E-14, 35.73205080756896024 ) ) ;
#261 = FACE_BOUND ( 'NONE', #238, .T. ) ;
#262 =( NAMED_UNIT ( * ) PLANE_ANGLE_UNIT ( ) SI_UNIT ( $, .RADIAN. ) );
#263 = EDGE_CURVE ( 'NONE', #5, #5, #35, .T. ) ;
ENDSEC;
END-ISO-10303-21;
