ISO-10303-21;
HEADER;
FILE_DESCRIPTION (( 'STEP AP203' ),
    '1' );
FILE_NAME ('62531.step',
    '2021-10-15T09:33:56',
    ( '' ),
    ( '' ),
    'SwSTEP 2.0',
    'SolidWorks 2019',
    '' );
FILE_SCHEMA (( 'CONFIG_CONTROL_DESIGN' ));
ENDSEC;

DATA;
#1 = DIRECTION ( 'NONE',  ( -3.491481338843133355E-15, -1.224646799147354045E-15, -1.000000000000000000 ) ) ;
#2 = DIRECTION ( 'NONE',  ( -4.402125587170869949E-30, 1.000000000000000000, -1.239088197126303488E-15 ) ) ;
#3 = CC_DESIGN_DATE_AND_TIME_ASSIGNMENT ( #255, #67, ( #87 ) ) ;
#4 = CARTESIAN_POINT ( 'NONE',  ( 9.077851480992146724E-14, 1.749999999999997113, 26.00000000000000000 ) ) ;
#5 = DATE_TIME_ROLE ( 'classification_date' ) ;
#6 = CC_DESIGN_DATE_AND_TIME_ASSIGNMENT ( #152, #5, ( #63 ) ) ;
#7 = APPROVAL_DATE_TIME ( #195, #174 ) ;
#8 = PERSON_AND_ORGANIZATION_ROLE ( 'design_owner' ) ;
#9 = EDGE_LOOP ( 'NONE', ( #252 ) ) ;
#10 = SHAPE_DEFINITION_REPRESENTATION ( #256, #66 ) ;
#11 = EDGE_LOOP ( 'NONE', ( #88 ) ) ;
#12 = FACE_OUTER_BOUND ( 'NONE', #69, .T. ) ;
#13 = CONICAL_SURFACE ( 'NONE', #208, 1.500000000000000222, 0.7853981633974476129 ) ;
#14 = FACE_OUTER_BOUND ( 'NONE', #212, .T. ) ;
#15 = FACE_OUTER_BOUND ( 'NONE', #129, .T. ) ;
#16 = CARTESIAN_POINT ( 'NONE',  ( 6.982962677686265448E-14, 2.449293598294707696E-14, 19.99999999999999645 ) ) ;
#17 = AXIS2_PLACEMENT_3D ( 'NONE', #176, #36, #138 ) ;
#18 = CARTESIAN_POINT ( 'NONE',  ( 1.779113393168724501E-15, 6.240289753306214587E-16, 0.5095583279726809689 ) ) ;
#19 = FACE_OUTER_BOUND ( 'NONE', #79, .T. ) ;
#20 = EDGE_CURVE ( 'NONE', #245, #245, #123, .T. ) ;
#21 =( NAMED_UNIT ( * ) PLANE_ANGLE_UNIT ( ) SI_UNIT ( $, .RADIAN. ) );
#22 = CIRCLE ( 'NONE', #125, 1.399999999999999023 ) ;
#23 = EDGE_CURVE ( 'NONE', #164, #164, #32, .T. ) ;
#24 = CARTESIAN_POINT ( 'NONE',  ( 2.428872138585244203E-15, 1.749999999999999778, 0.6956566290541956743 ) ) ;
#25 = LOCAL_TIME ( 11, 33, 56.00000000000000000, #92 ) ;
#26 = AXIS2_PLACEMENT_3D ( 'NONE', #157, #35, #82 ) ;
#27 = ORIENTED_EDGE ( 'NONE', *, *, #220, .F. ) ;
#28 = APPROVAL_STATUS ( 'not_yet_approved' ) ;
#29 = EDGE_LOOP ( 'NONE', ( #170 ) ) ;
#30 = APPLICATION_PROTOCOL_DEFINITION ( 'international standard', 'config_control_design', 1994, #143 ) ;
#31 = CARTESIAN_POINT ( 'NONE',  ( 0.0000000000000000000, 0.0000000000000000000, 0.0000000000000000000 ) ) ;
#32 = CIRCLE ( 'NONE', #102, 1.999999999999997335 ) ;
#33 = CC_DESIGN_PERSON_AND_ORGANIZATION_ASSIGNMENT ( #187, #8, ( #145 ) ) ;
#34 = AXIS2_PLACEMENT_3D ( 'NONE', #182, #104, #181 ) ;
#35 = DIRECTION ( 'NONE',  ( -3.491481338843133355E-15, 1.224646799147353207E-16, -1.000000000000000000 ) ) ;
#36 = DIRECTION ( 'NONE',  ( -3.491481338843133355E-15, -1.224646799147354045E-15, -1.000000000000000000 ) ) ;
#37 = EDGE_LOOP ( 'NONE', ( #50 ) ) ;
#38 = DIRECTION ( 'NONE',  ( 3.491481338843133355E-15, -1.224646799147353207E-16, 1.000000000000000000 ) ) ;
#39 = CARTESIAN_POINT ( 'NONE',  ( 6.982962677686266711E-14, 1.499759782661850218E-32, 20.00000000000000000 ) ) ;
#40 = ADVANCED_FACE ( 'NONE', ( #140 ), #100, .T. ) ;
#41 = VERTEX_POINT ( 'NONE', #24 ) ;
#42 = CC_DESIGN_PERSON_AND_ORGANIZATION_ASSIGNMENT ( #115, #70, ( #63 ) ) ;
#43 = AXIS2_PLACEMENT_3D ( 'NONE', #219, #139, #122 ) ;
#44 = VERTEX_POINT ( 'NONE', #207 ) ;
#45 = CC_DESIGN_APPROVAL ( #174, ( #87 ) ) ;
#46 = COORDINATED_UNIVERSAL_TIME_OFFSET ( 1, 0, .AHEAD. ) ;
#47 = EDGE_CURVE ( 'NONE', #161, #161, #22, .T. ) ;
#48 = CALENDAR_DATE ( 2021, 15, 10 ) ;
#49 = AXIS2_PLACEMENT_3D ( 'NONE', #31, #233, #52 ) ;
#50 = ORIENTED_EDGE ( 'NONE', *, *, #197, .F. ) ;
#51 = DIRECTION ( 'NONE',  ( 4.930380657631400155E-30, -1.000000000000000000, 1.387778780781467172E-15 ) ) ;
#52 = DIRECTION ( 'NONE',  ( 1.000000000000000000, 0.0000000000000000000, 0.0000000000000000000 ) ) ;
#53 = CIRCLE ( 'NONE', #204, 1.749999999999982014 ) ;
#54 = CC_DESIGN_SECURITY_CLASSIFICATION ( #63, ( #184 ) ) ;
#55 = CARTESIAN_POINT ( 'NONE',  ( 2.304377683636468267E-13, -8.082668874372532400E-15, 66.00000000000000000 ) ) ;
#56 = COORDINATED_UNIVERSAL_TIME_OFFSET ( 1, 0, .AHEAD. ) ;
#57 = DIRECTION ( 'NONE',  ( -3.491481338843133355E-15, 1.224646799147353207E-16, -1.000000000000000000 ) ) ;
#58 = ADVANCED_FACE ( 'NONE', ( #137 ), #118, .F. ) ;
#59 = DIRECTION ( 'NONE',  ( -3.491481338843133355E-15, -1.224646799147354045E-15, -1.000000000000000000 ) ) ;
#60 = FACE_OUTER_BOUND ( 'NONE', #131, .T. ) ;
#61 = DIRECTION ( 'NONE',  ( -4.275831445896958607E-31, -1.000000000000000000, -1.224646799147353207E-16 ) ) ;
#62 = EDGE_LOOP ( 'NONE', ( #103 ) ) ;
#63 = SECURITY_CLASSIFICATION ( '', '', #130 ) ;
#64 = CIRCLE ( 'NONE', #17, 1.749999999999965361 ) ;
#65 = ADVANCED_FACE ( 'NONE', ( #15 ), #127, .T. ) ;
#66 = ADVANCED_BREP_SHAPE_REPRESENTATION ( '62531', ( #201, #202, #49 ), #162 ) ;
#67 = DATE_TIME_ROLE ( 'creation_date' ) ;
#68 = DIRECTION ( 'NONE',  ( -3.491481338843133355E-15, 1.224646799147353207E-16, -1.000000000000000000 ) ) ;
#69 = EDGE_LOOP ( 'NONE', ( #112 ) ) ;
#70 = PERSON_AND_ORGANIZATION_ROLE ( 'classification_officer' ) ;
#71 = EDGE_LOOP ( 'NONE', ( #111 ) ) ;
#72 = PERSON_AND_ORGANIZATION_ROLE ( 'creator' ) ;
#73 = ADVANCED_FACE ( 'NONE', ( #12, #200 ), #119, .T. ) ;
#74 = DIRECTION ( 'NONE',  ( -4.275831445896958607E-31, -1.000000000000000000, -1.224646799147353207E-16 ) ) ;
#75 = APPROVAL_DATE_TIME ( #153, #211 ) ;
#76 = APPROVAL_PERSON_ORGANIZATION ( #89, #225, #151 ) ;
#77 = DIRECTION ( 'NONE',  ( -4.182019307812286269E-30, 1.000000000000000000, -1.239088197126291655E-15 ) ) ;
#78 = LOCAL_TIME ( 11, 33, 56.00000000000000000, #96 ) ;
#79 = EDGE_LOOP ( 'NONE', ( #230 ) ) ;
#80 = FACE_OUTER_BOUND ( 'NONE', #71, .T. ) ;
#81 = AXIS2_PLACEMENT_3D ( 'NONE', #97, #59, #173 ) ;
#82 = DIRECTION ( 'NONE',  ( 4.275831445896958607E-31, 1.000000000000000000, 1.224646799147353207E-16 ) ) ;
#83 = PRODUCT_RELATED_PRODUCT_CATEGORY ( 'detail', '', ( #145 ) ) ;
#84 = DIRECTION ( 'NONE',  ( 0.0000000000000000000, 1.000000000000000000, 0.0000000000000000000 ) ) ;
#85 = LOCAL_TIME ( 11, 33, 56.00000000000000000, #190 ) ;
#86 = FACE_OUTER_BOUND ( 'NONE', #234, .T. ) ;
#87 = PRODUCT_DEFINITION ( 'UNKNOWN', '', #184, #101 ) ;
#88 = ORIENTED_EDGE ( 'NONE', *, *, #148, .F. ) ;
#89 = PERSON_AND_ORGANIZATION ( #107, #206 ) ;
#90 = PERSON_AND_ORGANIZATION ( #107, #206 ) ;
#91 = ORIENTED_EDGE ( 'NONE', *, *, #197, .T. ) ;
#92 = COORDINATED_UNIVERSAL_TIME_OFFSET ( 1, 0, .AHEAD. ) ;
#93 = CLOSED_SHELL ( 'NONE', ( #40, #65, #261, #166 ) ) ;
#94 = CC_DESIGN_APPROVAL ( #225, ( #63 ) ) ;
#95 = CALENDAR_DATE ( 2021, 15, 10 ) ;
#96 = COORDINATED_UNIVERSAL_TIME_OFFSET ( 1, 0, .AHEAD. ) ;
#97 = CARTESIAN_POINT ( 'NONE',  ( -3.491481338843130200E-15, -1.224646799147353059E-15, -0.9999999999999991118 ) ) ;
#98 = DIRECTION ( 'NONE',  ( -3.491481338843133355E-15, -1.224646799147354045E-15, -1.000000000000000000 ) ) ;
#99 = CONICAL_SURFACE ( 'NONE', #34, 1.749999999999998890, 1.082104136236485603 ) ;
#100 = PLANE ( 'NONE',  #150 ) ;
#101 = DESIGN_CONTEXT ( 'detailed design', #143, 'design' ) ;
#102 = AXIS2_PLACEMENT_3D ( 'NONE', #116, #177, #156 ) ;
#103 = ORIENTED_EDGE ( 'NONE', *, *, #148, .T. ) ;
#104 = DIRECTION ( 'NONE',  ( 3.491481338843133355E-15, 1.224646799147354045E-15, 1.000000000000000000 ) ) ;
#105 = CC_DESIGN_PERSON_AND_ORGANIZATION_ASSIGNMENT ( #215, #72, ( #184 ) ) ;
#106 = FACE_OUTER_BOUND ( 'NONE', #11, .T. ) ;
#107 = PERSON ( 'UNSPECIFIED', 'UNSPECIFIED', 'UNSPECIFIED', ('UNSPECIFIED'), ('UNSPECIFIED'), ('UNSPECIFIED') ) ;
#108 = APPROVAL_PERSON_ORGANIZATION ( #113, #211, #167 ) ;
#109 = VERTEX_POINT ( 'NONE', #4 ) ;
#110 = CIRCLE ( 'NONE', #134, 1.500000000000000222 ) ;
#111 = ORIENTED_EDGE ( 'NONE', *, *, #23, .F. ) ;
#112 = ORIENTED_EDGE ( 'NONE', *, *, #23, .T. ) ;
#113 = PERSON_AND_ORGANIZATION ( #107, #206 ) ;
#114 = DATE_AND_TIME ( #169, #85 ) ;
#115 = PERSON_AND_ORGANIZATION ( #107, #206 ) ;
#116 = CARTESIAN_POINT ( 'NONE',  ( 9.229037057806040873E-14, 3.237110439719373321E-14, 26.43301270189228092 ) ) ;
#117 = APPROVAL_ROLE ( '' ) ;
#118 = PLANE ( 'NONE',  #246 ) ;
#119 = CYLINDRICAL_SURFACE ( 'NONE', #178, 1.999999999999997335 ) ;
#120 = UNCERTAINTY_MEASURE_WITH_UNIT (LENGTH_MEASURE( 1.000000000000000082E-05 ), #243, 'distance_accuracy_value', 'NONE');
#121 = EDGE_CURVE ( 'NONE', #163, #163, #110, .T. ) ;
#122 = DIRECTION ( 'NONE',  ( 4.402125587170827910E-30, -1.000000000000000000, 1.239088197126291655E-15 ) ) ;
#123 = CIRCLE ( 'NONE', #262, 2.000000000000000000 ) ;
#124 = APPROVAL_PERSON_ORGANIZATION ( #155, #174, #117 ) ;
#125 = AXIS2_PLACEMENT_3D ( 'NONE', #18, #224, #196 ) ;
#126 = CARTESIAN_POINT ( 'NONE',  ( 2.286920276942252663E-13, 1.999999999999992228, 65.50000000000000000 ) ) ;
#127 = CONICAL_SURFACE ( 'NONE', #43, 1.399999999999999023, 1.221730476396031939 ) ;
#128 = EDGE_LOOP ( 'NONE', ( #168 ) ) ;
#129 = EDGE_LOOP ( 'NONE', ( #229 ) ) ;
#130 = SECURITY_CLASSIFICATION_LEVEL ( 'unclassified' ) ;
#131 = EDGE_LOOP ( 'NONE', ( #91 ) ) ;
#132 = CALENDAR_DATE ( 2021, 15, 10 ) ;
#133 = CIRCLE ( 'NONE', #242, 1.749999999999982014 ) ;
#134 = AXIS2_PLACEMENT_3D ( 'NONE', #55, #57, #239 ) ;
#135 = DIRECTION ( 'NONE',  ( -3.491481338843133355E-15, 1.224646799147353207E-16, -1.000000000000000000 ) ) ;
#136 = MECHANICAL_CONTEXT ( 'NONE', #221, 'mechanical' ) ;
#137 = FACE_OUTER_BOUND ( 'NONE', #62, .T. ) ;
#138 = DIRECTION ( 'NONE',  ( -7.043400939473458620E-30, 1.000000000000000000, -1.982541115402104356E-15 ) ) ;
#139 = DIRECTION ( 'NONE',  ( 3.491481338843133355E-15, 1.224646799147354045E-15, 1.000000000000000000 ) ) ;
#140 = FACE_OUTER_BOUND ( 'NONE', #165, .T. ) ;
#141 = CONICAL_SURFACE ( 'NONE', #216, 2.499999999999961364, 0.5235987755982969283 ) ;
#142 = FACE_BOUND ( 'NONE', #128, .T. ) ;
#143 = APPLICATION_CONTEXT ( 'configuration controlled 3d designs of mechanical parts and assemblies' ) ;
#144 = FACE_BOUND ( 'NONE', #29, .T. ) ;
#145 = PRODUCT ( '62531', '62531', '', ( #136 ) ) ;
#146 = CLOSED_SHELL ( 'NONE', ( #73, #241, #158, #236, #203, #58 ) ) ;
#147 = CARTESIAN_POINT ( 'NONE',  ( 9.229037057806042135E-14, -1.999999999999964917, 26.43301270189228092 ) ) ;
#148 = EDGE_CURVE ( 'NONE', #44, #44, #133, .T. ) ;
#149 = ORIENTED_EDGE ( 'NONE', *, *, #220, .T. ) ;
#150 = AXIS2_PLACEMENT_3D ( 'NONE', #223, #38, #74 ) ;
#151 = APPROVAL_ROLE ( '' ) ;
#152 = DATE_AND_TIME ( #132, #210 ) ;
#153 = DATE_AND_TIME ( #95, #25 ) ;
#154 = DIRECTION ( 'NONE',  ( 3.491481338843133355E-15, -1.224646799147353207E-16, 1.000000000000000000 ) ) ;
#155 = PERSON_AND_ORGANIZATION ( #107, #206 ) ;
#156 = DIRECTION ( 'NONE',  ( 6.162975822039163138E-30, -1.000000000000000000, 1.734723475976809461E-15 ) ) ;
#157 = CARTESIAN_POINT ( 'NONE',  ( 2.304377683636468267E-13, 1.124819836996381437E-32, 66.00000000000000000 ) ) ;
#158 = ADVANCED_FACE ( 'NONE', ( #14 ), #175, .F. ) ;
#159 = CARTESIAN_POINT ( 'NONE',  ( 9.531408211433766062E-14, 3.343167963591856917E-14, 27.29903810567665801 ) ) ;
#160 = DIRECTION ( 'NONE',  ( -3.491481338843133355E-15, 1.224646799147353207E-16, -1.000000000000000000 ) ) ;
#161 = VERTEX_POINT ( 'NONE', #209 ) ;
#162 =( GEOMETRIC_REPRESENTATION_CONTEXT ( 3 ) GLOBAL_UNCERTAINTY_ASSIGNED_CONTEXT ( ( #120 ) ) GLOBAL_UNIT_ASSIGNED_CONTEXT ( ( #243, #21, #172 ) ) REPRESENTATION_CONTEXT ( 'NONE', 'WORKASPACE' ) );
#163 = VERTEX_POINT ( 'NONE', #226 ) ;
#164 = VERTEX_POINT ( 'NONE', #147 ) ;
#165 = EDGE_LOOP ( 'NONE', ( #27 ) ) ;
#166 = ADVANCED_FACE ( 'NONE', ( #237, #238 ), #258, .T. ) ;
#167 = APPROVAL_ROLE ( '' ) ;
#168 = ORIENTED_EDGE ( 'NONE', *, *, #47, .F. ) ;
#169 = CALENDAR_DATE ( 2021, 15, 10 ) ;
#170 = ORIENTED_EDGE ( 'NONE', *, *, #121, .T. ) ;
#171 = CC_DESIGN_APPROVAL ( #211, ( #184 ) ) ;
#172 =( NAMED_UNIT ( * ) SI_UNIT ( $, .STERADIAN. ) SOLID_ANGLE_UNIT ( ) );
#173 = DIRECTION ( 'NONE',  ( -4.402125587170869949E-30, 1.000000000000000000, -1.239088197126303488E-15 ) ) ;
#174 = APPROVAL ( #218, 'UNSPECIFIED' ) ;
#175 = PLANE ( 'NONE',  #26 ) ;
#176 = CARTESIAN_POINT ( 'NONE',  ( 9.077851480992147986E-14, 3.184081677783120794E-14, 26.00000000000000355 ) ) ;
#177 = DIRECTION ( 'NONE',  ( 3.491481338843133355E-15, 1.224646799147354045E-15, 1.000000000000000000 ) ) ;
#178 = AXIS2_PLACEMENT_3D ( 'NONE', #259, #198, #260 ) ;
#179 = CARTESIAN_POINT ( 'NONE',  ( 2.286920276942252663E-13, -8.021436534415164826E-15, 65.50000000000000000 ) ) ;
#180 = CC_DESIGN_PERSON_AND_ORGANIZATION_ASSIGNMENT ( #250, #235, ( #184 ) ) ;
#181 = DIRECTION ( 'NONE',  ( 4.182019307812286269E-30, -1.000000000000000000, 1.239088197126291655E-15 ) ) ;
#182 = CARTESIAN_POINT ( 'NONE',  ( 2.428872138585251698E-15, 8.519336640768615104E-16, 0.6956566290541978947 ) ) ;
#183 = CYLINDRICAL_SURFACE ( 'NONE', #185, 1.749999999999982014 ) ;
#184 = PRODUCT_DEFINITION_FORMATION_WITH_SPECIFIED_SOURCE ( 'ANY', '', #145, .NOT_KNOWN. ) ;
#185 = AXIS2_PLACEMENT_3D ( 'NONE', #228, #1, #2 ) ;
#186 = CC_DESIGN_PERSON_AND_ORGANIZATION_ASSIGNMENT ( #90, #213, ( #87 ) ) ;
#187 = PERSON_AND_ORGANIZATION ( #107, #206 ) ;
#188 = DIRECTION ( 'NONE',  ( 3.491481338843133355E-15, 1.224646799147354045E-15, 1.000000000000000000 ) ) ;
#189 = ORIENTED_EDGE ( 'NONE', *, *, #121, .F. ) ;
#190 = COORDINATED_UNIVERSAL_TIME_OFFSET ( 1, 0, .AHEAD. ) ;
#191 = CIRCLE ( 'NONE', #227, 1.749999999999998890 ) ;
#192 = EDGE_CURVE ( 'NONE', #41, #41, #191, .T. ) ;
#193 = APPROVAL_DATE_TIME ( #114, #225 ) ;
#194 = ORIENTED_EDGE ( 'NONE', *, *, #20, .F. ) ;
#195 = DATE_AND_TIME ( #214, #240 ) ;
#196 = DIRECTION ( 'NONE',  ( -4.402125587170827910E-30, 1.000000000000000000, -1.239088197126291655E-15 ) ) ;
#197 = EDGE_CURVE ( 'NONE', #109, #109, #64, .T. ) ;
#198 = DIRECTION ( 'NONE',  ( -3.491481338843133355E-15, 1.224646799147353207E-16, -1.000000000000000000 ) ) ;
#199 = DIRECTION ( 'NONE',  ( 0.0000000000000000000, 1.000000000000000000, 0.0000000000000000000 ) ) ;
#200 = FACE_OUTER_BOUND ( 'NONE', #254, .T. ) ;
#201 = MANIFOLD_SOLID_BREP ( 'Corps-Déplacer/Copier1[1]', #146 ) ;
#202 = MANIFOLD_SOLID_BREP ( 'Corps-Déplacer/Copier1[2]', #93 ) ;
#203 = ADVANCED_FACE ( 'NONE', ( #222, #80 ), #141, .T. ) ;
#204 = AXIS2_PLACEMENT_3D ( 'NONE', #253, #68, #251 ) ;
#205 = CARTESIAN_POINT ( 'NONE',  ( 2.304377683636468267E-13, -8.082668874372532400E-15, 66.00000000000000000 ) ) ;
#206 = ORGANIZATION ( 'UNSPECIFIED', 'UNSPECIFIED', '' ) ;
#207 = CARTESIAN_POINT ( 'NONE',  ( 6.982962677686265448E-14, -1.749999999999957589, 19.99999999999999645 ) ) ;
#208 = AXIS2_PLACEMENT_3D ( 'NONE', #205, #263, #84 ) ;
#209 = CARTESIAN_POINT ( 'NONE',  ( 1.779113393168718190E-15, 1.399999999999999689, 0.5095583279726791925 ) ) ;
#210 = LOCAL_TIME ( 11, 33, 56.00000000000000000, #56 ) ;
#211 = APPROVAL ( #28, 'UNSPECIFIED' ) ;
#212 = EDGE_LOOP ( 'NONE', ( #189 ) ) ;
#213 = PERSON_AND_ORGANIZATION_ROLE ( 'creator' ) ;
#214 = CALENDAR_DATE ( 2021, 15, 10 ) ;
#215 = PERSON_AND_ORGANIZATION ( #107, #206 ) ;
#216 = AXIS2_PLACEMENT_3D ( 'NONE', #159, #188, #51 ) ;
#217 = DIRECTION ( 'NONE',  ( 0.0000000000000000000, -1.000000000000000000, 0.0000000000000000000 ) ) ;
#218 = APPROVAL_STATUS ( 'not_yet_approved' ) ;
#219 = CARTESIAN_POINT ( 'NONE',  ( 1.779113393168724501E-15, 6.240289753306214587E-16, 0.5095583279726809689 ) ) ;
#220 = EDGE_CURVE ( 'NONE', #247, #247, #53, .T. ) ;
#221 = APPLICATION_CONTEXT ( 'configuration controlled 3d designs of mechanical parts and assemblies' ) ;
#222 = FACE_BOUND ( 'NONE', #37, .T. ) ;
#223 = CARTESIAN_POINT ( 'NONE',  ( 6.982962677686266711E-14, 1.499759782661850218E-32, 20.00000000000000000 ) ) ;
#224 = DIRECTION ( 'NONE',  ( -3.491481338843133355E-15, -1.224646799147354045E-15, -1.000000000000000000 ) ) ;
#225 = APPROVAL ( #232, 'UNSPECIFIED' ) ;
#226 = CARTESIAN_POINT ( 'NONE',  ( 2.304377683636468267E-13, 1.499999999999992228, 66.00000000000000000 ) ) ;
#227 = AXIS2_PLACEMENT_3D ( 'NONE', #257, #98, #77 ) ;
#228 = CARTESIAN_POINT ( 'NONE',  ( -3.491481338843130200E-15, -1.224646799147353059E-15, -0.9999999999999991118 ) ) ;
#229 = ORIENTED_EDGE ( 'NONE', *, *, #47, .T. ) ;
#230 = ORIENTED_EDGE ( 'NONE', *, *, #192, .T. ) ;
#231 = APPLICATION_PROTOCOL_DEFINITION ( 'international standard', 'config_control_design', 1994, #221 ) ;
#232 = APPROVAL_STATUS ( 'not_yet_approved' ) ;
#233 = DIRECTION ( 'NONE',  ( 0.0000000000000000000, 0.0000000000000000000, 1.000000000000000000 ) ) ;
#234 = EDGE_LOOP ( 'NONE', ( #194 ) ) ;
#235 = PERSON_AND_ORGANIZATION_ROLE ( 'design_supplier' ) ;
#236 = ADVANCED_FACE ( 'NONE', ( #60, #106 ), #183, .T. ) ;
#237 = FACE_OUTER_BOUND ( 'NONE', #248, .T. ) ;
#238 = FACE_OUTER_BOUND ( 'NONE', #9, .T. ) ;
#239 = DIRECTION ( 'NONE',  ( 0.0000000000000000000, 1.000000000000000000, 0.0000000000000000000 ) ) ;
#240 = LOCAL_TIME ( 11, 33, 56.00000000000000000, #46 ) ;
#241 = ADVANCED_FACE ( 'NONE', ( #86, #144 ), #13, .T. ) ;
#242 = AXIS2_PLACEMENT_3D ( 'NONE', #16, #135, #217 ) ;
#243 =( LENGTH_UNIT ( ) NAMED_UNIT ( * ) SI_UNIT ( .MILLI., .METRE. ) );
#244 = CARTESIAN_POINT ( 'NONE',  ( 6.982962677686265448E-14, -1.749999999999957589, 19.99999999999999645 ) ) ;
#245 = VERTEX_POINT ( 'NONE', #126 ) ;
#246 = AXIS2_PLACEMENT_3D ( 'NONE', #39, #154, #61 ) ;
#247 = VERTEX_POINT ( 'NONE', #244 ) ;
#248 = EDGE_LOOP ( 'NONE', ( #149 ) ) ;
#249 = ORIENTED_EDGE ( 'NONE', *, *, #20, .T. ) ;
#250 = PERSON_AND_ORGANIZATION ( #107, #206 ) ;
#251 = DIRECTION ( 'NONE',  ( 0.0000000000000000000, -1.000000000000000000, 0.0000000000000000000 ) ) ;
#252 = ORIENTED_EDGE ( 'NONE', *, *, #192, .F. ) ;
#253 = CARTESIAN_POINT ( 'NONE',  ( 6.982962677686265448E-14, 2.449293598294707696E-14, 19.99999999999999645 ) ) ;
#254 = EDGE_LOOP ( 'NONE', ( #249 ) ) ;
#255 = DATE_AND_TIME ( #48, #78 ) ;
#256 = PRODUCT_DEFINITION_SHAPE ( 'NONE', 'NONE',  #87 ) ;
#257 = CARTESIAN_POINT ( 'NONE',  ( 2.428872138585251698E-15, 8.519336640768615104E-16, 0.6956566290541978947 ) ) ;
#258 = CYLINDRICAL_SURFACE ( 'NONE', #81, 1.749999999999982014 ) ;
#259 = CARTESIAN_POINT ( 'NONE',  ( 0.0000000000000000000, 0.0000000000000000000, 0.0000000000000000000 ) ) ;
#260 = DIRECTION ( 'NONE',  ( 4.275831445896959482E-31, 1.000000000000000000, 1.224646799147353454E-16 ) ) ;
#261 = ADVANCED_FACE ( 'NONE', ( #142, #19 ), #99, .T. ) ;
#262 = AXIS2_PLACEMENT_3D ( 'NONE', #179, #160, #199 ) ;
#263 = DIRECTION ( 'NONE',  ( -3.491481338843133355E-15, 1.224646799147353207E-16, -1.000000000000000000 ) ) ;
ENDSEC;
END-ISO-10303-21;
