ISO-10303-21;
HEADER;
FILE_DESCRIPTION (( 'STEP AP203' ),
    '1' );
FILE_NAME ('62530.step',
    '2021-10-15T09:33:55',
    ( '' ),
    ( '' ),
    'SwSTEP 2.0',
    'SolidWorks 2019',
    '' );
FILE_SCHEMA (( 'CONFIG_CONTROL_DESIGN' ));
ENDSEC;

DATA;
#1 = DIRECTION ( 'NONE',  ( 0.0000000000000000000, -1.000000000000000000, 0.0000000000000000000 ) ) ;
#2 = DATE_TIME_ROLE ( 'creation_date' ) ;
#3 = ORIENTED_EDGE ( 'NONE', *, *, #162, .T. ) ;
#4 = EDGE_LOOP ( 'NONE', ( #24 ) ) ;
#5 = PERSON_AND_ORGANIZATION ( #244, #71 ) ;
#6 = DATE_TIME_ROLE ( 'classification_date' ) ;
#7 = AXIS2_PLACEMENT_3D ( 'NONE', #105, #87, #224 ) ;
#8 = PRODUCT_RELATED_PRODUCT_CATEGORY ( 'detail', '', ( #152 ) ) ;
#9 = PLANE ( 'NONE',  #56 ) ;
#10 = CIRCLE ( 'NONE', #123, 1.999999999999997335 ) ;
#11 = FACE_BOUND ( 'NONE', #190, .T. ) ;
#12 = CC_DESIGN_PERSON_AND_ORGANIZATION_ASSIGNMENT ( #39, #126, ( #152 ) ) ;
#13 = DIRECTION ( 'NONE',  ( 0.0000000000000000000, 1.000000000000000000, 0.0000000000000000000 ) ) ;
#14 = ORIENTED_EDGE ( 'NONE', *, *, #40, .T. ) ;
#15 = DIRECTION ( 'NONE',  ( -3.491481338843133355E-15, 1.224646799147353207E-16, -1.000000000000000000 ) ) ;
#16 = FACE_OUTER_BOUND ( 'NONE', #73, .T. ) ;
#17 = APPROVAL ( #189, 'UNSPECIFIED' ) ;
#18 = CC_DESIGN_APPROVAL ( #230, ( #38 ) ) ;
#19 =( NAMED_UNIT ( * ) PLANE_ANGLE_UNIT ( ) SI_UNIT ( $, .RADIAN. ) );
#20 = PERSON_AND_ORGANIZATION ( #244, #71 ) ;
#21 = ADVANCED_FACE ( 'NONE', ( #233, #96 ), #218, .T. ) ;
#22 = VERTEX_POINT ( 'NONE', #143 ) ;
#23 = CALENDAR_DATE ( 2021, 15, 10 ) ;
#24 = ORIENTED_EDGE ( 'NONE', *, *, #110, .T. ) ;
#25 = PRODUCT_DEFINITION_SHAPE ( 'NONE', 'NONE',  #38 ) ;
#26 = APPLICATION_CONTEXT ( 'configuration controlled 3d designs of mechanical parts and assemblies' ) ;
#27 = ORIENTED_EDGE ( 'NONE', *, *, #49, .F. ) ;
#28 = PERSON_AND_ORGANIZATION ( #244, #71 ) ;
#29 = CIRCLE ( 'NONE', #198, 1.499999999999982236 ) ;
#30 = EDGE_CURVE ( 'NONE', #202, #202, #41, .T. ) ;
#31 = LOCAL_TIME ( 11, 33, 55.00000000000000000, #232 ) ;
#32 = DIRECTION ( 'NONE',  ( 3.491481338843133355E-15, 1.224646799147354045E-15, 1.000000000000000000 ) ) ;
#33 = FACE_OUTER_BOUND ( 'NONE', #51, .T. ) ;
#34 = CARTESIAN_POINT ( 'NONE',  ( 2.286920276942252663E-13, -8.021436534415164826E-15, 65.50000000000000000 ) ) ;
#35 = DIRECTION ( 'NONE',  ( 3.491481338843133355E-15, 1.224646799147354045E-15, 1.000000000000000000 ) ) ;
#36 = DIRECTION ( 'NONE',  ( -3.491481338843133355E-15, 1.224646799147353207E-16, -1.000000000000000000 ) ) ;
#37 = CIRCLE ( 'NONE', #101, 1.500000000000000222 ) ;
#38 = PRODUCT_DEFINITION ( 'UNKNOWN', '', #117, #254 ) ;
#39 = PERSON_AND_ORGANIZATION ( #244, #71 ) ;
#40 = EDGE_CURVE ( 'NONE', #225, #225, #10, .T. ) ;
#41 = CIRCLE ( 'NONE', #83, 2.000000000000000000 ) ;
#42 = CARTESIAN_POINT ( 'NONE',  ( 9.380222634619914827E-14, -1.999999999999964473, 26.86602540378450144 ) ) ;
#43 = APPROVAL_PERSON_ORGANIZATION ( #20, #230, #131 ) ;
#44 = CALENDAR_DATE ( 2021, 15, 10 ) ;
#45 = CALENDAR_DATE ( 2021, 15, 10 ) ;
#46 = EDGE_LOOP ( 'NONE', ( #154 ) ) ;
#47 = PERSON_AND_ORGANIZATION ( #244, #71 ) ;
#48 = ORIENTED_EDGE ( 'NONE', *, *, #30, .T. ) ;
#49 = EDGE_CURVE ( 'NONE', #65, #65, #106, .T. ) ;
#50 = APPROVAL_DATE_TIME ( #72, #138 ) ;
#51 = EDGE_LOOP ( 'NONE', ( #3 ) ) ;
#52 = AXIS2_PLACEMENT_3D ( 'NONE', #241, #242, #263 ) ;
#53 = CC_DESIGN_APPROVAL ( #17, ( #117 ) ) ;
#54 = DIRECTION ( 'NONE',  ( -3.491481338843133355E-15, 1.224646799147353207E-16, -1.000000000000000000 ) ) ;
#55 = ORIENTED_EDGE ( 'NONE', *, *, #110, .F. ) ;
#56 = AXIS2_PLACEMENT_3D ( 'NONE', #159, #239, #60 ) ;
#57 = DIRECTION ( 'NONE',  ( 0.0000000000000000000, 1.000000000000000000, 0.0000000000000000000 ) ) ;
#58 = DIRECTION ( 'NONE',  ( -3.491481338843133355E-15, -1.224646799147354045E-15, -1.000000000000000000 ) ) ;
#59 = ADVANCED_FACE ( 'NONE', ( #33 ), #236, .F. ) ;
#60 = DIRECTION ( 'NONE',  ( -4.275831445896958607E-31, -1.000000000000000000, -1.224646799147353207E-16 ) ) ;
#61 = CARTESIAN_POINT ( 'NONE',  ( 2.081890404501637043E-15, 1.500000000000000000, 0.5962771106178818004 ) ) ;
#62 = FACE_OUTER_BOUND ( 'NONE', #4, .T. ) ;
#63 = EDGE_CURVE ( 'NONE', #109, #109, #37, .T. ) ;
#64 = CARTESIAN_POINT ( 'NONE',  ( 6.982962677686265448E-14, 2.449293598294707696E-14, 19.99999999999999645 ) ) ;
#65 = VERTEX_POINT ( 'NONE', #61 ) ;
#66 = ORIENTED_EDGE ( 'NONE', *, *, #162, .F. ) ;
#67 = AXIS2_PLACEMENT_3D ( 'NONE', #158, #35, #121 ) ;
#68 = EDGE_LOOP ( 'NONE', ( #48 ) ) ;
#69 = SECURITY_CLASSIFICATION_LEVEL ( 'unclassified' ) ;
#70 = ADVANCED_FACE ( 'NONE', ( #122 ), #9, .T. ) ;
#71 = ORGANIZATION ( 'UNSPECIFIED', 'UNSPECIFIED', '' ) ;
#72 = DATE_AND_TIME ( #45, #31 ) ;
#73 = EDGE_LOOP ( 'NONE', ( #137 ) ) ;
#74 = DIRECTION ( 'NONE',  ( 6.162975822039163138E-30, -1.000000000000000000, 1.734723475976809461E-15 ) ) ;
#75 = APPROVAL_PERSON_ORGANIZATION ( #47, #17, #212 ) ;
#76 = FACE_BOUND ( 'NONE', #229, .T. ) ;
#77 = DIRECTION ( 'NONE',  ( -3.491481338843133355E-15, 1.224646799147353207E-16, -1.000000000000000000 ) ) ;
#78 = AXIS2_PLACEMENT_3D ( 'NONE', #81, #15, #234 ) ;
#79 = CARTESIAN_POINT ( 'NONE',  ( 2.081890404501643749E-15, 7.302288549230237855E-16, 0.5962771106178836877 ) ) ;
#80 = EDGE_CURVE ( 'NONE', #128, #128, #243, .T. ) ;
#81 = CARTESIAN_POINT ( 'NONE',  ( 0.0000000000000000000, 0.0000000000000000000, 0.0000000000000000000 ) ) ;
#82 = CARTESIAN_POINT ( 'NONE',  ( 6.982962677686265448E-14, -1.499999999999957812, 19.99999999999999645 ) ) ;
#83 = AXIS2_PLACEMENT_3D ( 'NONE', #34, #136, #57 ) ;
#84 = FACE_OUTER_BOUND ( 'NONE', #95, .T. ) ;
#85 =( NAMED_UNIT ( * ) SI_UNIT ( $, .STERADIAN. ) SOLID_ANGLE_UNIT ( ) );
#86 = CLOSED_SHELL ( 'NONE', ( #70, #206, #174, #211 ) ) ;
#87 = DIRECTION ( 'NONE',  ( 0.0000000000000000000, 0.0000000000000000000, 1.000000000000000000 ) ) ;
#88 = ADVANCED_FACE ( 'NONE', ( #192, #76 ), #134, .T. ) ;
#89 = APPROVAL_STATUS ( 'not_yet_approved' ) ;
#90 = DATE_AND_TIME ( #23, #238 ) ;
#91 = EDGE_LOOP ( 'NONE', ( #135 ) ) ;
#92 = COORDINATED_UNIVERSAL_TIME_OFFSET ( 1, 0, .AHEAD. ) ;
#93 = CONICAL_SURFACE ( 'NONE', #235, 1.199999999999999289, 1.221730476396031939 ) ;
#94 = PERSON_AND_ORGANIZATION ( #244, #71 ) ;
#95 = EDGE_LOOP ( 'NONE', ( #66 ) ) ;
#96 = FACE_OUTER_BOUND ( 'NONE', #68, .T. ) ;
#97 = FACE_OUTER_BOUND ( 'NONE', #91, .T. ) ;
#98 = PLANE ( 'NONE',  #167 ) ;
#99 = DIRECTION ( 'NONE',  ( 0.0000000000000000000, 1.000000000000000000, 0.0000000000000000000 ) ) ;
#100 = UNCERTAINTY_MEASURE_WITH_UNIT (LENGTH_MEASURE( 1.000000000000000082E-05 ), #184, 'distance_accuracy_value', 'NONE');
#101 = AXIS2_PLACEMENT_3D ( 'NONE', #237, #36, #99 ) ;
#102 = CARTESIAN_POINT ( 'NONE',  ( 1.524954337001763605E-15, 5.348819788548182804E-16, 0.4367642811194407115 ) ) ;
#103 = CYLINDRICAL_SURFACE ( 'NONE', #127, 1.499999999999982236 ) ;
#104 = CC_DESIGN_PERSON_AND_ORGANIZATION_ASSIGNMENT ( #173, #147, ( #38 ) ) ;
#105 = CARTESIAN_POINT ( 'NONE',  ( 0.0000000000000000000, 0.0000000000000000000, 0.0000000000000000000 ) ) ;
#106 = CIRCLE ( 'NONE', #111, 1.499999999999999334 ) ;
#107 = CYLINDRICAL_SURFACE ( 'NONE', #52, 1.499999999999982236 ) ;
#108 = DIRECTION ( 'NONE',  ( 4.333342374871283472E-30, -1.000000000000000000, 1.219727444046193277E-15 ) ) ;
#109 = VERTEX_POINT ( 'NONE', #222 ) ;
#110 = EDGE_CURVE ( 'NONE', #124, #124, #194, .T. ) ;
#111 = AXIS2_PLACEMENT_3D ( 'NONE', #79, #253, #140 ) ;
#112 = SHAPE_DEFINITION_REPRESENTATION ( #25, #155 ) ;
#113 = ADVANCED_FACE ( 'NONE', ( #258, #252 ), #262, .T. ) ;
#114 = ORIENTED_EDGE ( 'NONE', *, *, #63, .F. ) ;
#115 = COORDINATED_UNIVERSAL_TIME_OFFSET ( 1, 0, .AHEAD. ) ;
#116 = CLOSED_SHELL ( 'NONE', ( #21, #88, #165, #255, #113, #59 ) ) ;
#117 = PRODUCT_DEFINITION_FORMATION_WITH_SPECIFIED_SOURCE ( 'ANY', '', #152, .NOT_KNOWN. ) ;
#118 = DIRECTION ( 'NONE',  ( 4.930380657631400855E-30, -1.000000000000000000, 1.387778780781467369E-15 ) ) ;
#119 = DIRECTION ( 'NONE',  ( -8.217301096052396416E-30, 1.000000000000000000, -2.312964634635796304E-15 ) ) ;
#120 = CARTESIAN_POINT ( 'NONE',  ( 9.682593788247636229E-14, 3.396196725528101871E-14, 27.73205080756887497 ) ) ;
#121 = DIRECTION ( 'NONE',  ( 4.365441207277736235E-30, -1.000000000000000000, 1.228762462150238819E-15 ) ) ;
#122 = FACE_OUTER_BOUND ( 'NONE', #245, .T. ) ;
#123 = AXIS2_PLACEMENT_3D ( 'NONE', #221, #32, #74 ) ;
#124 = VERTEX_POINT ( 'NONE', #260 ) ;
#125 = FACE_OUTER_BOUND ( 'NONE', #46, .T. ) ;
#126 = PERSON_AND_ORGANIZATION_ROLE ( 'design_owner' ) ;
#127 = AXIS2_PLACEMENT_3D ( 'NONE', #166, #204, #163 ) ;
#128 = VERTEX_POINT ( 'NONE', #180 ) ;
#129 = EDGE_LOOP ( 'NONE', ( #257 ) ) ;
#130 = CC_DESIGN_PERSON_AND_ORGANIZATION_ASSIGNMENT ( #172, #153, ( #117 ) ) ;
#131 = APPROVAL_ROLE ( '' ) ;
#132 = AXIS2_PLACEMENT_3D ( 'NONE', #102, #197, #179 ) ;
#133 = DATE_AND_TIME ( #44, #231 ) ;
#134 = CONICAL_SURFACE ( 'NONE', #146, 1.500000000000000222, 0.7853981633974476129 ) ;
#135 = ORIENTED_EDGE ( 'NONE', *, *, #49, .T. ) ;
#136 = DIRECTION ( 'NONE',  ( -3.491481338843133355E-15, 1.224646799147353207E-16, -1.000000000000000000 ) ) ;
#137 = ORIENTED_EDGE ( 'NONE', *, *, #80, .T. ) ;
#138 = APPROVAL ( #151, 'UNSPECIFIED' ) ;
#139 = CARTESIAN_POINT ( 'NONE',  ( 6.982962677686265448E-14, 2.449293598294707696E-14, 19.99999999999999645 ) ) ;
#140 = DIRECTION ( 'NONE',  ( -4.365441207277736235E-30, 1.000000000000000000, -1.228762462150238819E-15 ) ) ;
#141 = DIRECTION ( 'NONE',  ( 3.491481338843133355E-15, 1.224646799147354045E-15, 1.000000000000000000 ) ) ;
#142 = CIRCLE ( 'NONE', #188, 1.499999999999982236 ) ;
#143 = CARTESIAN_POINT ( 'NONE',  ( 6.982962677686265448E-14, -1.499999999999957812, 19.99999999999999645 ) ) ;
#144 = VERTEX_POINT ( 'NONE', #82 ) ;
#145 = DIRECTION ( 'NONE',  ( -3.491481338843133355E-15, 1.224646799147353207E-16, -1.000000000000000000 ) ) ;
#146 = AXIS2_PLACEMENT_3D ( 'NONE', #199, #54, #13 ) ;
#147 = PERSON_AND_ORGANIZATION_ROLE ( 'creator' ) ;
#148 = EDGE_LOOP ( 'NONE', ( #27 ) ) ;
#149 = CONICAL_SURFACE ( 'NONE', #67, 1.499999999999999334, 1.082104136236486269 ) ;
#150 = COORDINATED_UNIVERSAL_TIME_OFFSET ( 1, 0, .AHEAD. ) ;
#151 = APPROVAL_STATUS ( 'not_yet_approved' ) ;
#152 = PRODUCT ( '62530', '62530', '', ( #168 ) ) ;
#153 = PERSON_AND_ORGANIZATION_ROLE ( 'creator' ) ;
#154 = ORIENTED_EDGE ( 'NONE', *, *, #261, .T. ) ;
#155 = ADVANCED_BREP_SHAPE_REPRESENTATION ( '62530', ( #207, #208, #7 ), #226 ) ;
#156 = DIRECTION ( 'NONE',  ( 0.0000000000000000000, -1.000000000000000000, 0.0000000000000000000 ) ) ;
#157 = DIRECTION ( 'NONE',  ( -4.275831445896958607E-31, -1.000000000000000000, -1.224646799147353207E-16 ) ) ;
#158 = CARTESIAN_POINT ( 'NONE',  ( 2.081890404501643749E-15, 7.302288549230237855E-16, 0.5962771106178836877 ) ) ;
#159 = CARTESIAN_POINT ( 'NONE',  ( 6.982962677686266711E-14, 1.499759782661850218E-32, 20.00000000000000000 ) ) ;
#160 = SECURITY_CLASSIFICATION ( '', '', #69 ) ;
#161 = CARTESIAN_POINT ( 'NONE',  ( 6.982962677686266711E-14, 1.499759782661850218E-32, 20.00000000000000000 ) ) ;
#162 = EDGE_CURVE ( 'NONE', #144, #144, #142, .T. ) ;
#163 = DIRECTION ( 'NONE',  ( -4.108650548026151965E-30, 1.000000000000000000, -1.156482317317885136E-15 ) ) ;
#164 = CC_DESIGN_SECURITY_CLASSIFICATION ( #160, ( #117 ) ) ;
#165 = ADVANCED_FACE ( 'NONE', ( #196 ), #98, .F. ) ;
#166 = CARTESIAN_POINT ( 'NONE',  ( -3.491481338843130200E-15, -1.224646799147353059E-15, -0.9999999999999991118 ) ) ;
#167 = AXIS2_PLACEMENT_3D ( 'NONE', #256, #77, #195 ) ;
#168 = MECHANICAL_CONTEXT ( 'NONE', #169, 'mechanical' ) ;
#169 = APPLICATION_CONTEXT ( 'configuration controlled 3d designs of mechanical parts and assemblies' ) ;
#170 = PERSON_AND_ORGANIZATION_ROLE ( 'classification_officer' ) ;
#171 = ORIENTED_EDGE ( 'NONE', *, *, #30, .F. ) ;
#172 = PERSON_AND_ORGANIZATION ( #244, #71 ) ;
#173 = PERSON_AND_ORGANIZATION ( #244, #71 ) ;
#174 = ADVANCED_FACE ( 'NONE', ( #11, #97 ), #149, .T. ) ;
#175 = CALENDAR_DATE ( 2021, 15, 10 ) ;
#176 = EDGE_LOOP ( 'NONE', ( #114 ) ) ;
#177 = ORIENTED_EDGE ( 'NONE', *, *, #261, .F. ) ;
#178 = CARTESIAN_POINT ( 'NONE',  ( 9.077851480992147986E-14, 3.184081677783120794E-14, 26.00000000000000355 ) ) ;
#179 = DIRECTION ( 'NONE',  ( -4.333342374871283472E-30, 1.000000000000000000, -1.219727444046193277E-15 ) ) ;
#180 = CARTESIAN_POINT ( 'NONE',  ( 9.077851480992146724E-14, 1.499999999999997113, 26.00000000000000000 ) ) ;
#181 = FACE_OUTER_BOUND ( 'NONE', #148, .T. ) ;
#182 = CC_DESIGN_PERSON_AND_ORGANIZATION_ASSIGNMENT ( #28, #170, ( #160 ) ) ;
#183 = CARTESIAN_POINT ( 'NONE',  ( 2.286920276942252663E-13, 1.999999999999992228, 65.50000000000000000 ) ) ;
#184 =( LENGTH_UNIT ( ) NAMED_UNIT ( * ) SI_UNIT ( .MILLI., .METRE. ) );
#185 = APPLICATION_PROTOCOL_DEFINITION ( 'international standard', 'config_control_design', 1994, #169 ) ;
#186 = AXIS2_PLACEMENT_3D ( 'NONE', #178, #58, #119 ) ;
#187 = DATE_AND_TIME ( #191, #259 ) ;
#188 = AXIS2_PLACEMENT_3D ( 'NONE', #139, #217, #156 ) ;
#189 = APPROVAL_STATUS ( 'not_yet_approved' ) ;
#190 = EDGE_LOOP ( 'NONE', ( #55 ) ) ;
#191 = CALENDAR_DATE ( 2021, 15, 10 ) ;
#192 = FACE_OUTER_BOUND ( 'NONE', #251, .T. ) ;
#193 = CC_DESIGN_PERSON_AND_ORGANIZATION_ASSIGNMENT ( #5, #250, ( #117 ) ) ;
#194 = CIRCLE ( 'NONE', #132, 1.199999999999999289 ) ;
#195 = DIRECTION ( 'NONE',  ( 4.275831445896958607E-31, 1.000000000000000000, 1.224646799147353207E-16 ) ) ;
#196 = FACE_OUTER_BOUND ( 'NONE', #176, .T. ) ;
#197 = DIRECTION ( 'NONE',  ( -3.491481338843133355E-15, -1.224646799147354045E-15, -1.000000000000000000 ) ) ;
#198 = AXIS2_PLACEMENT_3D ( 'NONE', #64, #145, #1 ) ;
#199 = CARTESIAN_POINT ( 'NONE',  ( 2.304377683636468267E-13, -8.082668874372532400E-15, 66.00000000000000000 ) ) ;
#200 = DIRECTION ( 'NONE',  ( 3.491481338843133355E-15, 1.224646799147354045E-15, 1.000000000000000000 ) ) ;
#201 = CC_DESIGN_APPROVAL ( #138, ( #160 ) ) ;
#202 = VERTEX_POINT ( 'NONE', #183 ) ;
#203 = APPLICATION_PROTOCOL_DEFINITION ( 'international standard', 'config_control_design', 1994, #26 ) ;
#204 = DIRECTION ( 'NONE',  ( -3.491481338843133355E-15, -1.224646799147354045E-15, -1.000000000000000000 ) ) ;
#205 = CARTESIAN_POINT ( 'NONE',  ( 1.524954337001763605E-15, 5.348819788548182804E-16, 0.4367642811194407115 ) ) ;
#206 = ADVANCED_FACE ( 'NONE', ( #62 ), #93, .T. ) ;
#207 = MANIFOLD_SOLID_BREP ( 'Corps-Déplacer/Copier1[1]', #116 ) ;
#208 = MANIFOLD_SOLID_BREP ( 'Corps-Déplacer/Copier1[2]', #86 ) ;
#209 = ORIENTED_EDGE ( 'NONE', *, *, #40, .F. ) ;
#210 = EDGE_LOOP ( 'NONE', ( #14 ) ) ;
#211 = ADVANCED_FACE ( 'NONE', ( #125, #181 ), #103, .T. ) ;
#212 = APPROVAL_ROLE ( '' ) ;
#213 = AXIS2_PLACEMENT_3D ( 'NONE', #161, #219, #157 ) ;
#214 = DATE_AND_TIME ( #175, #223 ) ;
#215 = ORIENTED_EDGE ( 'NONE', *, *, #63, .T. ) ;
#216 = APPROVAL_PERSON_ORGANIZATION ( #94, #138, #228 ) ;
#217 = DIRECTION ( 'NONE',  ( -3.491481338843133355E-15, 1.224646799147353207E-16, -1.000000000000000000 ) ) ;
#218 = CYLINDRICAL_SURFACE ( 'NONE', #78, 1.999999999999997335 ) ;
#219 = DIRECTION ( 'NONE',  ( 3.491481338843133355E-15, -1.224646799147353207E-16, 1.000000000000000000 ) ) ;
#220 = CC_DESIGN_DATE_AND_TIME_ASSIGNMENT ( #214, #6, ( #160 ) ) ;
#221 = CARTESIAN_POINT ( 'NONE',  ( 9.380222634619913565E-14, 3.290139201655618906E-14, 26.86602540378449788 ) ) ;
#222 = CARTESIAN_POINT ( 'NONE',  ( 2.304377683636468267E-13, 1.499999999999992228, 66.00000000000000000 ) ) ;
#223 = LOCAL_TIME ( 11, 33, 55.00000000000000000, #115 ) ;
#224 = DIRECTION ( 'NONE',  ( 1.000000000000000000, 0.0000000000000000000, 0.0000000000000000000 ) ) ;
#225 = VERTEX_POINT ( 'NONE', #42 ) ;
#226 =( GEOMETRIC_REPRESENTATION_CONTEXT ( 3 ) GLOBAL_UNCERTAINTY_ASSIGNED_CONTEXT ( ( #100 ) ) GLOBAL_UNIT_ASSIGNED_CONTEXT ( ( #184, #19, #85 ) ) REPRESENTATION_CONTEXT ( 'NONE', 'WORKASPACE' ) );
#227 = COORDINATED_UNIVERSAL_TIME_OFFSET ( 1, 0, .AHEAD. ) ;
#228 = APPROVAL_ROLE ( '' ) ;
#229 = EDGE_LOOP ( 'NONE', ( #215 ) ) ;
#230 = APPROVAL ( #89, 'UNSPECIFIED' ) ;
#231 = LOCAL_TIME ( 11, 33, 55.00000000000000000, #92 ) ;
#232 = COORDINATED_UNIVERSAL_TIME_OFFSET ( 1, 0, .AHEAD. ) ;
#233 = FACE_OUTER_BOUND ( 'NONE', #210, .T. ) ;
#234 = DIRECTION ( 'NONE',  ( 4.275831445896959482E-31, 1.000000000000000000, 1.224646799147353454E-16 ) ) ;
#235 = AXIS2_PLACEMENT_3D ( 'NONE', #205, #200, #108 ) ;
#236 = PLANE ( 'NONE',  #213 ) ;
#237 = CARTESIAN_POINT ( 'NONE',  ( 2.304377683636468267E-13, -8.082668874372532400E-15, 66.00000000000000000 ) ) ;
#238 = LOCAL_TIME ( 11, 33, 55.00000000000000000, #227 ) ;
#239 = DIRECTION ( 'NONE',  ( 3.491481338843133355E-15, -1.224646799147353207E-16, 1.000000000000000000 ) ) ;
#240 = AXIS2_PLACEMENT_3D ( 'NONE', #120, #141, #118 ) ;
#241 = CARTESIAN_POINT ( 'NONE',  ( -3.491481338843130200E-15, -1.224646799147353059E-15, -0.9999999999999991118 ) ) ;
#242 = DIRECTION ( 'NONE',  ( -3.491481338843133355E-15, -1.224646799147354045E-15, -1.000000000000000000 ) ) ;
#243 = CIRCLE ( 'NONE', #186, 1.499999999999965361 ) ;
#244 = PERSON ( 'UNSPECIFIED', 'UNSPECIFIED', 'UNSPECIFIED', ('UNSPECIFIED'), ('UNSPECIFIED'), ('UNSPECIFIED') ) ;
#245 = EDGE_LOOP ( 'NONE', ( #177 ) ) ;
#246 = CC_DESIGN_DATE_AND_TIME_ASSIGNMENT ( #133, #2, ( #38 ) ) ;
#247 = APPROVAL_DATE_TIME ( #90, #230 ) ;
#248 = EDGE_LOOP ( 'NONE', ( #209 ) ) ;
#249 = APPROVAL_DATE_TIME ( #187, #17 ) ;
#250 = PERSON_AND_ORGANIZATION_ROLE ( 'design_supplier' ) ;
#251 = EDGE_LOOP ( 'NONE', ( #171 ) ) ;
#252 = FACE_OUTER_BOUND ( 'NONE', #248, .T. ) ;
#253 = DIRECTION ( 'NONE',  ( -3.491481338843133355E-15, -1.224646799147354045E-15, -1.000000000000000000 ) ) ;
#254 = DESIGN_CONTEXT ( 'detailed design', #26, 'design' ) ;
#255 = ADVANCED_FACE ( 'NONE', ( #16, #84 ), #107, .T. ) ;
#256 = CARTESIAN_POINT ( 'NONE',  ( 2.304377683636468267E-13, 1.124819836996381437E-32, 66.00000000000000000 ) ) ;
#257 = ORIENTED_EDGE ( 'NONE', *, *, #80, .F. ) ;
#258 = FACE_BOUND ( 'NONE', #129, .T. ) ;
#259 = LOCAL_TIME ( 11, 33, 55.00000000000000000, #150 ) ;
#260 = CARTESIAN_POINT ( 'NONE',  ( 1.524954337001758477E-15, 1.199999999999999734, 0.4367642811194392682 ) ) ;
#261 = EDGE_CURVE ( 'NONE', #22, #22, #29, .T. ) ;
#262 = CONICAL_SURFACE ( 'NONE', #240, 2.499999999999960920, 0.5235987755982984826 ) ;
#263 = DIRECTION ( 'NONE',  ( -4.108650548026151965E-30, 1.000000000000000000, -1.156482317317885136E-15 ) ) ;
ENDSEC;
END-ISO-10303-21;
