ISO-10303-21;
HEADER;
FILE_DESCRIPTION (( 'STEP AP203' ),
    '1' );
FILE_NAME ('62529.step',
    '2021-10-15T09:33:55',
    ( '' ),
    ( '' ),
    'SwSTEP 2.0',
    'SolidWorks 2019',
    '' );
FILE_SCHEMA (( 'CONFIG_CONTROL_DESIGN' ));
ENDSEC;

DATA;
#1 = FACE_BOUND ( 'NONE', #42, .T. ) ;
#2 = ADVANCED_FACE ( 'NONE', ( #174, #206 ), #108, .T. ) ;
#3 = EDGE_LOOP ( 'NONE', ( #201 ) ) ;
#4 = CARTESIAN_POINT ( 'NONE',  ( 2.164718430082742680E-13, -7.592810154713590230E-15, 62.00000000000000000 ) ) ;
#5 = DIRECTION ( 'NONE',  ( 4.314083075427411113E-30, -1.000000000000000000, 1.214306433183765755E-15 ) ) ;
#6 = PERSON ( 'UNSPECIFIED', 'UNSPECIFIED', 'UNSPECIFIED', ('UNSPECIFIED'), ('UNSPECIFIED'), ('UNSPECIFIED') ) ;
#7 = PERSON_AND_ORGANIZATION_ROLE ( 'classification_officer' ) ;
#8 = DIRECTION ( 'NONE',  ( -3.491481338843133355E-15, -1.224646799147354045E-15, -1.000000000000000000 ) ) ;
#9 = AXIS2_PLACEMENT_3D ( 'NONE', #228, #110, #205 ) ;
#10 = APPROVAL_DATE_TIME ( #192, #34 ) ;
#11 = PRODUCT_RELATED_PRODUCT_CATEGORY ( 'detail', '', ( #36 ) ) ;
#12 = VERTEX_POINT ( 'NONE', #14 ) ;
#13 = CIRCLE ( 'NONE', #198, 1.499999999999996669 ) ;
#14 = CARTESIAN_POINT ( 'NONE',  ( 6.633814543801950851E-14, 1.249999999999998002, 18.99999999999999645 ) ) ;
#15 = APPROVAL ( #152, 'UNSPECIFIED' ) ;
#16 = CARTESIAN_POINT ( 'NONE',  ( 5.237222008264700664E-14, -1.249999999999968692, 15.00000000000000178 ) ) ;
#17 = DESIGN_CONTEXT ( 'detailed design', #51, 'design' ) ;
#18 = CARTESIAN_POINT ( 'NONE',  ( 1.270795280834798369E-15, 0.9999999999999997780, 0.3639702342661992884 ) ) ;
#19 = EDGE_LOOP ( 'NONE', ( #148 ) ) ;
#20 = CARTESIAN_POINT ( 'NONE',  ( 2.150752504727370399E-13, 1.499999999999992006, 61.60000000000000142 ) ) ;
#21 = EDGE_LOOP ( 'NONE', ( #242 ) ) ;
#22 = COORDINATED_UNIVERSAL_TIME_OFFSET ( 1, 0, .AHEAD. ) ;
#23 = EDGE_CURVE ( 'NONE', #38, #38, #29, .T. ) ;
#24 = PLANE ( 'NONE',  #109 ) ;
#25 = CYLINDRICAL_SURFACE ( 'NONE', #75, 1.499999999999996669 ) ;
#26 = AXIS2_PLACEMENT_3D ( 'NONE', #248, #172, #112 ) ;
#27 = FACE_OUTER_BOUND ( 'NONE', #184, .T. ) ;
#28 = PERSON_AND_ORGANIZATION ( #6, #204 ) ;
#29 = CIRCLE ( 'NONE', #235, 1.099999999999999645 ) ;
#30 = CLOSED_SHELL ( 'NONE', ( #107, #113, #227, #2, #157, #31 ) ) ;
#31 = ADVANCED_FACE ( 'NONE', ( #68 ), #24, .F. ) ;
#32 = COORDINATED_UNIVERSAL_TIME_OFFSET ( 1, 0, .AHEAD. ) ;
#33 = DIRECTION ( 'NONE',  ( -4.275831445896958607E-31, -1.000000000000000000, -1.224646799147353207E-16 ) ) ;
#34 = APPROVAL ( #189, 'UNSPECIFIED' ) ;
#35 = CARTESIAN_POINT ( 'NONE',  ( 1.734908670418036194E-15, 6.085240457691865536E-16, 0.4968975921815696473 ) ) ;
#36 = PRODUCT ( '62529', '62529', '', ( #254 ) ) ;
#37 = CARTESIAN_POINT ( 'NONE',  ( 0.0000000000000000000, 0.0000000000000000000, 0.0000000000000000000 ) ) ;
#38 = VERTEX_POINT ( 'NONE', #217 ) ;
#39 = ORIENTED_EDGE ( 'NONE', *, *, #23, .F. ) ;
#40 = CARTESIAN_POINT ( 'NONE',  ( 2.164718430082742680E-13, 8.248678804640100524E-33, 62.00000000000000000 ) ) ;
#41 = EDGE_LOOP ( 'NONE', ( #164 ) ) ;
#42 = EDGE_LOOP ( 'NONE', ( #182 ) ) ;
#43 = EDGE_LOOP ( 'NONE', ( #76 ) ) ;
#44 = DIRECTION ( 'NONE',  ( -3.491481338843133355E-15, 1.224646799147353207E-16, -1.000000000000000000 ) ) ;
#45 = FACE_OUTER_BOUND ( 'NONE', #126, .T. ) ;
#46 = CC_DESIGN_PERSON_AND_ORGANIZATION_ASSIGNMENT ( #155, #134, ( #179 ) ) ;
#47 = APPROVAL_ROLE ( '' ) ;
#48 = CARTESIAN_POINT ( 'NONE',  ( 0.0000000000000000000, 0.0000000000000000000, 0.0000000000000000000 ) ) ;
#49 = CALENDAR_DATE ( 2021, 15, 10 ) ;
#50 = DATE_TIME_ROLE ( 'creation_date' ) ;
#51 = APPLICATION_CONTEXT ( 'configuration controlled 3d designs of mechanical parts and assemblies' ) ;
#52 = DIRECTION ( 'NONE',  ( 4.275831445896958607E-31, 1.000000000000000000, 1.224646799147352961E-16 ) ) ;
#53 = DIRECTION ( 'NONE',  ( -3.491481338843133355E-15, 1.224646799147353207E-16, -1.000000000000000000 ) ) ;
#54 = CC_DESIGN_PERSON_AND_ORGANIZATION_ASSIGNMENT ( #28, #209, ( #179 ) ) ;
#55 = DIRECTION ( 'NONE',  ( 6.162975822039247215E-30, -1.000000000000000000, 1.734723475976833127E-15 ) ) ;
#56 = LOCAL_TIME ( 11, 33, 55.00000000000000000, #32 ) ;
#57 = VERTEX_POINT ( 'NONE', #16 ) ;
#58 = ORIENTED_EDGE ( 'NONE', *, *, #247, .T. ) ;
#59 = DIRECTION ( 'NONE',  ( 0.0000000000000000000, 0.0000000000000000000, 1.000000000000000000 ) ) ;
#60 = EDGE_LOOP ( 'NONE', ( #39 ) ) ;
#61 = LOCAL_TIME ( 11, 33, 55.00000000000000000, #171 ) ;
#62 = APPROVAL_ROLE ( '' ) ;
#63 = EDGE_LOOP ( 'NONE', ( #158 ) ) ;
#64 = ADVANCED_FACE ( 'NONE', ( #185, #70 ), #194, .T. ) ;
#65 = DIRECTION ( 'NONE',  ( 3.491481338843133355E-15, 1.224646799147354045E-15, 1.000000000000000000 ) ) ;
#66 = AXIS2_PLACEMENT_3D ( 'NONE', #138, #215, #122 ) ;
#67 = DIRECTION ( 'NONE',  ( 3.491481338843133355E-15, 1.224646799147354045E-15, 1.000000000000000000 ) ) ;
#68 = FACE_OUTER_BOUND ( 'NONE', #218, .T. ) ;
#69 = APPLICATION_CONTEXT ( 'configuration controlled 3d designs of mechanical parts and assemblies' ) ;
#70 = FACE_OUTER_BOUND ( 'NONE', #143, .T. ) ;
#71 = LOCAL_TIME ( 11, 33, 55.00000000000000000, #240 ) ;
#72 = DIRECTION ( 'NONE',  ( 8.217301096052224056E-30, -1.000000000000000000, 2.312964634635747789E-15 ) ) ;
#73 = APPROVAL ( #125, 'UNSPECIFIED' ) ;
#74 = DIRECTION ( 'NONE',  ( -3.491481338843133355E-15, 1.224646799147353207E-16, -1.000000000000000000 ) ) ;
#75 = AXIS2_PLACEMENT_3D ( 'NONE', #48, #44, #52 ) ;
#76 = ORIENTED_EDGE ( 'NONE', *, *, #23, .T. ) ;
#77 = AXIS2_PLACEMENT_3D ( 'NONE', #123, #53, #101 ) ;
#78 =( NAMED_UNIT ( * ) PLANE_ANGLE_UNIT ( ) SI_UNIT ( $, .RADIAN. ) );
#79 = MANIFOLD_SOLID_BREP ( 'Corps-Déplacer/Copier1[2]', #219 ) ;
#80 = FACE_OUTER_BOUND ( 'NONE', #60, .T. ) ;
#81 = PERSON_AND_ORGANIZATION ( #6, #204 ) ;
#82 = AXIS2_PLACEMENT_3D ( 'NONE', #197, #159, #220 ) ;
#83 = ADVANCED_FACE ( 'NONE', ( #186 ), #128, .T. ) ;
#84 = CARTESIAN_POINT ( 'NONE',  ( 7.087371274243572713E-14, 2.485915204188708672E-14, 20.29903810567666156 ) ) ;
#85 = DIRECTION ( 'NONE',  ( 3.491481338843133355E-15, -1.224646799147353207E-16, 1.000000000000000000 ) ) ;
#86 = CIRCLE ( 'NONE', #66, 1.249999999999987121 ) ;
#87 = FACE_OUTER_BOUND ( 'NONE', #63, .T. ) ;
#88 = EDGE_CURVE ( 'NONE', #180, #180, #93, .T. ) ;
#89 = CALENDAR_DATE ( 2021, 15, 10 ) ;
#90 = DIRECTION ( 'NONE',  ( 3.491481338843133355E-15, 1.224646799147354045E-15, 1.000000000000000000 ) ) ;
#91 = DATE_TIME_ROLE ( 'classification_date' ) ;
#92 = CARTESIAN_POINT ( 'NONE',  ( 1.734908670418036194E-15, 6.085240457691865536E-16, 0.4968975921815696473 ) ) ;
#93 = CIRCLE ( 'NONE', #131, 0.9999999999999993339 ) ;
#94 =( NAMED_UNIT ( * ) SI_UNIT ( $, .STERADIAN. ) SOLID_ANGLE_UNIT ( ) );
#95 = CIRCLE ( 'NONE', #82, 1.249999999999974909 ) ;
#96 =( LENGTH_UNIT ( ) NAMED_UNIT ( * ) SI_UNIT ( .MILLI., .METRE. ) );
#97 = DIRECTION ( 'NONE',  ( -4.314083075427410413E-30, 1.000000000000000000, -1.214306433183765558E-15 ) ) ;
#98 = EDGE_CURVE ( 'NONE', #193, #193, #13, .T. ) ;
#99 = UNCERTAINTY_MEASURE_WITH_UNIT (LENGTH_MEASURE( 1.000000000000000082E-05 ), #96, 'distance_accuracy_value', 'NONE');
#100 = EDGE_LOOP ( 'NONE', ( #151 ) ) ;
#101 = DIRECTION ( 'NONE',  ( 0.0000000000000000000, 1.000000000000000000, 0.0000000000000000000 ) ) ;
#102 = ORIENTED_EDGE ( 'NONE', *, *, #98, .T. ) ;
#103 = DATE_AND_TIME ( #146, #244 ) ;
#104 = CC_DESIGN_PERSON_AND_ORGANIZATION_ASSIGNMENT ( #132, #7, ( #241 ) ) ;
#105 = LOCAL_TIME ( 11, 33, 55.00000000000000000, #210 ) ;
#106 = DIRECTION ( 'NONE',  ( -4.275831445896958607E-31, -1.000000000000000000, -1.224646799147353207E-16 ) ) ;
#107 = ADVANCED_FACE ( 'NONE', ( #45, #226 ), #25, .T. ) ;
#108 = CYLINDRICAL_SURFACE ( 'NONE', #9, 1.249999999999987121 ) ;
#109 = AXIS2_PLACEMENT_3D ( 'NONE', #150, #85, #106 ) ;
#110 = DIRECTION ( 'NONE',  ( -3.491481338843133355E-15, -1.224646799147354045E-15, -1.000000000000000000 ) ) ;
#111 = DATE_AND_TIME ( #89, #105 ) ;
#112 = DIRECTION ( 'NONE',  ( -4.314083075427452452E-30, 1.000000000000000000, -1.214306433183777391E-15 ) ) ;
#113 = ADVANCED_FACE ( 'NONE', ( #130, #153 ), #252, .T. ) ;
#114 = AXIS2_PLACEMENT_3D ( 'NONE', #4, #117, #207 ) ;
#115 = APPROVAL_PERSON_ORGANIZATION ( #249, #15, #47 ) ;
#116 = DATE_AND_TIME ( #49, #61 ) ;
#117 = DIRECTION ( 'NONE',  ( -3.491481338843133355E-15, 1.224646799147353207E-16, -1.000000000000000000 ) ) ;
#118 = PLANE ( 'NONE',  #195 ) ;
#119 =( GEOMETRIC_REPRESENTATION_CONTEXT ( 3 ) GLOBAL_UNCERTAINTY_ASSIGNED_CONTEXT ( ( #99 ) ) GLOBAL_UNIT_ASSIGNED_CONTEXT ( ( #96, #78, #94 ) ) REPRESENTATION_CONTEXT ( 'NONE', 'WORKASPACE' ) );
#120 = DIRECTION ( 'NONE',  ( -3.491481338843133355E-15, -1.224646799147354045E-15, -1.000000000000000000 ) ) ;
#121 = CC_DESIGN_DATE_AND_TIME_ASSIGNMENT ( #111, #91, ( #241 ) ) ;
#122 = DIRECTION ( 'NONE',  ( 0.0000000000000000000, -1.000000000000000000, 0.0000000000000000000 ) ) ;
#123 = CARTESIAN_POINT ( 'NONE',  ( 2.150752504727370399E-13, -7.543824282747695224E-15, 61.60000000000000142 ) ) ;
#124 = ORIENTED_EDGE ( 'NONE', *, *, #165, .F. ) ;
#125 = APPROVAL_STATUS ( 'not_yet_approved' ) ;
#126 = EDGE_LOOP ( 'NONE', ( #102 ) ) ;
#127 = EDGE_LOOP ( 'NONE', ( #161 ) ) ;
#128 = CONICAL_SURFACE ( 'NONE', #211, 0.9999999999999993339, 1.221730476396032161 ) ;
#129 = DIRECTION ( 'NONE',  ( 4.237045877651921679E-30, -1.000000000000000000, 1.246832498358330888E-15 ) ) ;
#130 = FACE_OUTER_BOUND ( 'NONE', #21, .T. ) ;
#131 = AXIS2_PLACEMENT_3D ( 'NONE', #246, #8, #251 ) ;
#132 = PERSON_AND_ORGANIZATION ( #6, #204 ) ;
#133 = EDGE_LOOP ( 'NONE', ( #203 ) ) ;
#134 = PERSON_AND_ORGANIZATION_ROLE ( 'creator' ) ;
#135 = ADVANCED_FACE ( 'NONE', ( #87, #136 ), #170, .T. ) ;
#136 = FACE_OUTER_BOUND ( 'NONE', #41, .T. ) ;
#137 = APPROVAL_ROLE ( '' ) ;
#138 = CARTESIAN_POINT ( 'NONE',  ( 5.237222008264700664E-14, 1.836970198721031324E-14, 15.00000000000000178 ) ) ;
#139 = CARTESIAN_POINT ( 'NONE',  ( 5.237222008264700664E-14, 1.836970198721031324E-14, 15.00000000000000178 ) ) ;
#140 = AXIS2_PLACEMENT_3D ( 'NONE', #37, #59, #259 ) ;
#141 = CARTESIAN_POINT ( 'NONE',  ( 1.734908670418030869E-15, 1.250000000000000000, 0.4968975921815681485 ) ) ;
#142 = PERSON_AND_ORGANIZATION ( #6, #204 ) ;
#143 = EDGE_LOOP ( 'NONE', ( #222 ) ) ;
#144 = ADVANCED_BREP_SHAPE_REPRESENTATION ( '62529', ( #169, #79, #140 ), #119 ) ;
#145 = AXIS2_PLACEMENT_3D ( 'NONE', #190, #212, #33 ) ;
#146 = CALENDAR_DATE ( 2021, 15, 10 ) ;
#147 = EDGE_LOOP ( 'NONE', ( #58 ) ) ;
#148 = ORIENTED_EDGE ( 'NONE', *, *, #88, .F. ) ;
#149 = ADVANCED_FACE ( 'NONE', ( #27 ), #230, .T. ) ;
#150 = CARTESIAN_POINT ( 'NONE',  ( 5.237222008264700033E-14, 1.124819836996385816E-32, 15.00000000000000000 ) ) ;
#151 = ORIENTED_EDGE ( 'NONE', *, *, #181, .T. ) ;
#152 = APPROVAL_STATUS ( 'not_yet_approved' ) ;
#153 = FACE_BOUND ( 'NONE', #43, .T. ) ;
#154 = CARTESIAN_POINT ( 'NONE',  ( 1.270795280834802708E-15, 4.457349823790151022E-16, 0.3639702342662005652 ) ) ;
#155 = PERSON_AND_ORGANIZATION ( #6, #204 ) ;
#156 = PERSON_AND_ORGANIZATION ( #6, #204 ) ;
#157 = ADVANCED_FACE ( 'NONE', ( #1, #243 ), #262, .T. ) ;
#158 = ORIENTED_EDGE ( 'NONE', *, *, #165, .T. ) ;
#159 = DIRECTION ( 'NONE',  ( -3.491481338843133355E-15, -1.224646799147354045E-15, -1.000000000000000000 ) ) ;
#160 = CARTESIAN_POINT ( 'NONE',  ( 5.237222008264700664E-14, -1.249999999999968692, 15.00000000000000178 ) ) ;
#161 = ORIENTED_EDGE ( 'NONE', *, *, #231, .F. ) ;
#162 = APPLICATION_PROTOCOL_DEFINITION ( 'international standard', 'config_control_design', 1994, #51 ) ;
#163 = CC_DESIGN_APPROVAL ( #15, ( #179 ) ) ;
#164 = ORIENTED_EDGE ( 'NONE', *, *, #239, .F. ) ;
#165 = EDGE_CURVE ( 'NONE', #57, #57, #223, .T. ) ;
#166 = ORIENTED_EDGE ( 'NONE', *, *, #231, .T. ) ;
#167 = DIRECTION ( 'NONE',  ( 3.491481338843133355E-15, 1.224646799147354045E-15, 1.000000000000000000 ) ) ;
#168 = CC_DESIGN_APPROVAL ( #73, ( #188 ) ) ;
#169 = MANIFOLD_SOLID_BREP ( 'Corps-Déplacer/Copier1[1]', #30 ) ;
#170 = CYLINDRICAL_SURFACE ( 'NONE', #26, 1.249999999999987121 ) ;
#171 = COORDINATED_UNIVERSAL_TIME_OFFSET ( 1, 0, .AHEAD. ) ;
#172 = DIRECTION ( 'NONE',  ( -3.491481338843133355E-15, -1.224646799147354045E-15, -1.000000000000000000 ) ) ;
#173 = CALENDAR_DATE ( 2021, 15, 10 ) ;
#174 = FACE_OUTER_BOUND ( 'NONE', #147, .T. ) ;
#175 = AXIS2_PLACEMENT_3D ( 'NONE', #92, #167, #5 ) ;
#176 = APPROVAL_DATE_TIME ( #116, #15 ) ;
#177 = AXIS2_PLACEMENT_3D ( 'NONE', #139, #260, #237 ) ;
#178 = VERTEX_POINT ( 'NONE', #141 ) ;
#179 = PRODUCT_DEFINITION_FORMATION_WITH_SPECIFIED_SOURCE ( 'ANY', '', #36, .NOT_KNOWN. ) ;
#180 = VERTEX_POINT ( 'NONE', #18 ) ;
#181 = EDGE_CURVE ( 'NONE', #213, #213, #245, .T. ) ;
#182 = ORIENTED_EDGE ( 'NONE', *, *, #247, .F. ) ;
#183 = PERSON_AND_ORGANIZATION_ROLE ( 'creator' ) ;
#184 = EDGE_LOOP ( 'NONE', ( #124 ) ) ;
#185 = FACE_BOUND ( 'NONE', #19, .T. ) ;
#186 = FACE_OUTER_BOUND ( 'NONE', #3, .T. ) ;
#187 = DIRECTION ( 'NONE',  ( 0.0000000000000000000, 1.000000000000000000, 0.0000000000000000000 ) ) ;
#188 = PRODUCT_DEFINITION ( 'UNKNOWN', '', #179, #17 ) ;
#189 = APPROVAL_STATUS ( 'not_yet_approved' ) ;
#190 = CARTESIAN_POINT ( 'NONE',  ( 5.237222008264700033E-14, 1.124819836996385816E-32, 15.00000000000000000 ) ) ;
#191 = DATE_AND_TIME ( #261, #71 ) ;
#192 = DATE_AND_TIME ( #173, #56 ) ;
#193 = VERTEX_POINT ( 'NONE', #199 ) ;
#194 = CONICAL_SURFACE ( 'NONE', #175, 1.249999999999999112, 1.082104136236485825 ) ;
#195 = AXIS2_PLACEMENT_3D ( 'NONE', #40, #74, #253 ) ;
#196 = VERTEX_POINT ( 'NONE', #160 ) ;
#197 = CARTESIAN_POINT ( 'NONE',  ( 6.633814543801950851E-14, 2.326828918379972548E-14, 18.99999999999999645 ) ) ;
#198 = AXIS2_PLACEMENT_3D ( 'NONE', #225, #67, #72 ) ;
#199 = CARTESIAN_POINT ( 'NONE',  ( 6.785000120615841213E-14, -1.499999999999972689, 19.43301270189226315 ) ) ;
#200 = CC_DESIGN_DATE_AND_TIME_ASSIGNMENT ( #191, #50, ( #188 ) ) ;
#201 = ORIENTED_EDGE ( 'NONE', *, *, #88, .T. ) ;
#202 = PERSON_AND_ORGANIZATION ( #6, #204 ) ;
#203 = ORIENTED_EDGE ( 'NONE', *, *, #98, .F. ) ;
#204 = ORGANIZATION ( 'UNSPECIFIED', 'UNSPECIFIED', '' ) ;
#205 = DIRECTION ( 'NONE',  ( -4.314083075427452452E-30, 1.000000000000000000, -1.214306433183777391E-15 ) ) ;
#206 = FACE_OUTER_BOUND ( 'NONE', #127, .T. ) ;
#207 = DIRECTION ( 'NONE',  ( 0.0000000000000000000, 1.000000000000000000, 0.0000000000000000000 ) ) ;
#208 = APPROVAL_PERSON_ORGANIZATION ( #81, #73, #62 ) ;
#209 = PERSON_AND_ORGANIZATION_ROLE ( 'design_supplier' ) ;
#210 = COORDINATED_UNIVERSAL_TIME_OFFSET ( 1, 0, .AHEAD. ) ;
#211 = AXIS2_PLACEMENT_3D ( 'NONE', #154, #90, #129 ) ;
#212 = DIRECTION ( 'NONE',  ( 3.491481338843133355E-15, -1.224646799147353207E-16, 1.000000000000000000 ) ) ;
#213 = VERTEX_POINT ( 'NONE', #20 ) ;
#214 = AXIS2_PLACEMENT_3D ( 'NONE', #35, #120, #97 ) ;
#215 = DIRECTION ( 'NONE',  ( -3.491481338843133355E-15, 1.224646799147353207E-16, -1.000000000000000000 ) ) ;
#216 = CC_DESIGN_PERSON_AND_ORGANIZATION_ASSIGNMENT ( #202, #183, ( #188 ) ) ;
#217 = CARTESIAN_POINT ( 'NONE',  ( 2.164718430082742680E-13, 1.099999999999992095, 62.00000000000000000 ) ) ;
#218 = EDGE_LOOP ( 'NONE', ( #166 ) ) ;
#219 = CLOSED_SHELL ( 'NONE', ( #149, #83, #64, #135 ) ) ;
#220 = DIRECTION ( 'NONE',  ( 0.0000000000000000000, 1.000000000000000000, 0.0000000000000000000 ) ) ;
#221 = APPROVAL_DATE_TIME ( #103, #73 ) ;
#222 = ORIENTED_EDGE ( 'NONE', *, *, #239, .T. ) ;
#223 = CIRCLE ( 'NONE', #177, 1.249999999999987121 ) ;
#224 = CIRCLE ( 'NONE', #214, 1.249999999999999334 ) ;
#225 = CARTESIAN_POINT ( 'NONE',  ( 6.785000120615839951E-14, 2.379857680316222551E-14, 19.43301270189225960 ) ) ;
#226 = FACE_OUTER_BOUND ( 'NONE', #100, .T. ) ;
#227 = ADVANCED_FACE ( 'NONE', ( #80 ), #118, .F. ) ;
#228 = CARTESIAN_POINT ( 'NONE',  ( -3.491481338843130200E-15, -1.224646799147353059E-15, -0.9999999999999991118 ) ) ;
#229 = SECURITY_CLASSIFICATION_LEVEL ( 'unclassified' ) ;
#230 = PLANE ( 'NONE',  #145 ) ;
#231 = EDGE_CURVE ( 'NONE', #196, #196, #86, .T. ) ;
#232 = CARTESIAN_POINT ( 'NONE',  ( 2.164718430082742680E-13, -7.592810154713590230E-15, 62.00000000000000000 ) ) ;
#233 = SHAPE_DEFINITION_REPRESENTATION ( #255, #144 ) ;
#234 = APPLICATION_PROTOCOL_DEFINITION ( 'international standard', 'config_control_design', 1994, #69 ) ;
#235 = AXIS2_PLACEMENT_3D ( 'NONE', #232, #250, #187 ) ;
#236 = CC_DESIGN_SECURITY_CLASSIFICATION ( #241, ( #179 ) ) ;
#237 = DIRECTION ( 'NONE',  ( 0.0000000000000000000, -1.000000000000000000, 0.0000000000000000000 ) ) ;
#238 = CC_DESIGN_PERSON_AND_ORGANIZATION_ASSIGNMENT ( #142, #256, ( #36 ) ) ;
#239 = EDGE_CURVE ( 'NONE', #178, #178, #224, .T. ) ;
#240 = COORDINATED_UNIVERSAL_TIME_OFFSET ( 1, 0, .AHEAD. ) ;
#241 = SECURITY_CLASSIFICATION ( '', '', #229 ) ;
#242 = ORIENTED_EDGE ( 'NONE', *, *, #181, .F. ) ;
#243 = FACE_OUTER_BOUND ( 'NONE', #133, .T. ) ;
#244 = LOCAL_TIME ( 11, 33, 55.00000000000000000, #22 ) ;
#245 = CIRCLE ( 'NONE', #77, 1.499999999999999556 ) ;
#246 = CARTESIAN_POINT ( 'NONE',  ( 1.270795280834802708E-15, 4.457349823790151022E-16, 0.3639702342662005652 ) ) ;
#247 = EDGE_CURVE ( 'NONE', #12, #12, #95, .T. ) ;
#248 = CARTESIAN_POINT ( 'NONE',  ( -3.491481338843130200E-15, -1.224646799147353059E-15, -0.9999999999999991118 ) ) ;
#249 = PERSON_AND_ORGANIZATION ( #6, #204 ) ;
#250 = DIRECTION ( 'NONE',  ( -3.491481338843133355E-15, 1.224646799147353207E-16, -1.000000000000000000 ) ) ;
#251 = DIRECTION ( 'NONE',  ( -4.237045877651921679E-30, 1.000000000000000000, -1.246832498358330888E-15 ) ) ;
#252 = CONICAL_SURFACE ( 'NONE', #114, 1.099999999999999645, 0.7853981633974512766 ) ;
#253 = DIRECTION ( 'NONE',  ( 4.275831445896958607E-31, 1.000000000000000000, 1.224646799147353207E-16 ) ) ;
#254 = MECHANICAL_CONTEXT ( 'NONE', #69, 'mechanical' ) ;
#255 = PRODUCT_DEFINITION_SHAPE ( 'NONE', 'NONE',  #188 ) ;
#256 = PERSON_AND_ORGANIZATION_ROLE ( 'design_owner' ) ;
#257 = AXIS2_PLACEMENT_3D ( 'NONE', #84, #65, #55 ) ;
#258 = APPROVAL_PERSON_ORGANIZATION ( #156, #34, #137 ) ;
#259 = DIRECTION ( 'NONE',  ( 1.000000000000000000, 0.0000000000000000000, 0.0000000000000000000 ) ) ;
#260 = DIRECTION ( 'NONE',  ( -3.491481338843133355E-15, 1.224646799147353207E-16, -1.000000000000000000 ) ) ;
#261 = CALENDAR_DATE ( 2021, 15, 10 ) ;
#262 = CONICAL_SURFACE ( 'NONE', #257, 1.999999999999970024, 0.5235987755982940417 ) ;
#263 = CC_DESIGN_APPROVAL ( #34, ( #241 ) ) ;
ENDSEC;
END-ISO-10303-21;
