ISO-10303-21;
HEADER;
FILE_DESCRIPTION (( 'STEP AP203' ),
    '1' );
FILE_NAME ('625.step',
    '2021-12-06T12:59:55',
    ( '' ),
    ( '' ),
    'SwSTEP 2.0',
    'SolidWorks 2019',
    '' );
FILE_SCHEMA (( 'CONFIG_CONTROL_DESIGN' ));
ENDSEC;

DATA;
#1 = DESIGN_CONTEXT ( 'detailed design', #81, 'design' ) ;
#2 = PERSON_AND_ORGANIZATION ( #15, #82 ) ;
#3 = CC_DESIGN_APPROVAL ( #66, ( #97 ) ) ;
#4 = CALENDAR_DATE ( 2021, 6, 12 ) ;
#5 = ORIENTED_EDGE ( 'NONE', *, *, #153, .F. ) ;
#6 = PERSON_AND_ORGANIZATION ( #15, #82 ) ;
#7 = MECHANICAL_CONTEXT ( 'NONE', #138, 'mechanical' ) ;
#8 = APPROVAL_PERSON_ORGANIZATION ( #95, #66, #14 ) ;
#9 = APPLICATION_PROTOCOL_DEFINITION ( 'international standard', 'config_control_design', 1994, #138 ) ;
#10 = DIRECTION ( 'NONE',  ( 3.491481338843133355E-15, -1.224646799147353207E-16, 1.000000000000000000 ) ) ;
#11 = CC_DESIGN_SECURITY_CLASSIFICATION ( #97, ( #16 ) ) ;
#12 = PRODUCT_RELATED_PRODUCT_CATEGORY ( 'detail', '', ( #51 ) ) ;
#13 = AXIS2_PLACEMENT_3D ( 'NONE', #64, #109, #136 ) ;
#14 = APPROVAL_ROLE ( '' ) ;
#15 = PERSON ( 'UNSPECIFIED', 'UNSPECIFIED', 'UNSPECIFIED', ('UNSPECIFIED'), ('UNSPECIFIED'), ('UNSPECIFIED') ) ;
#16 = PRODUCT_DEFINITION_FORMATION_WITH_SPECIFIED_SOURCE ( 'ANY', '', #51, .NOT_KNOWN. ) ;
#17 = CARTESIAN_POINT ( 'NONE',  ( 0.0000000000000000000, 10.00000000000000000, 0.0000000000000000000 ) ) ;
#18 = ORIENTED_EDGE ( 'NONE', *, *, #52, .F. ) ;
#19 = VERTEX_POINT ( 'NONE', #17 ) ;
#20 = CC_DESIGN_PERSON_AND_ORGANIZATION_ASSIGNMENT ( #31, #162, ( #78 ) ) ;
#21 = EDGE_LOOP ( 'NONE', ( #86 ) ) ;
#22 = AXIS2_PLACEMENT_3D ( 'NONE', #163, #149, #43 ) ;
#23 = AXIS2_PLACEMENT_3D ( 'NONE', #123, #87, #34 ) ;
#24 = CARTESIAN_POINT ( 'NONE',  ( 0.0000000000000000000, 0.0000000000000000000, 0.0000000000000000000 ) ) ;
#25 = APPROVAL_DATE_TIME ( #33, #93 ) ;
#26 = CC_DESIGN_PERSON_AND_ORGANIZATION_ASSIGNMENT ( #2, #148, ( #16 ) ) ;
#27 = ADVANCED_FACE ( 'NONE', ( #115, #164 ), #83, .T. ) ;
#28 = CC_DESIGN_DATE_AND_TIME_ASSIGNMENT ( #126, #111, ( #78 ) ) ;
#29 = DATE_AND_TIME ( #4, #32 ) ;
#30 = DATE_TIME_ROLE ( 'classification_date' ) ;
#31 = PERSON_AND_ORGANIZATION ( #15, #82 ) ;
#32 = LOCAL_TIME ( 13, 59, 55.00000000000000000, #145 ) ;
#33 = DATE_AND_TIME ( #129, #48 ) ;
#34 = DIRECTION ( 'NONE',  ( 1.000000000000000000, 0.0000000000000000000, 0.0000000000000000000 ) ) ;
#35 = ADVANCED_BREP_SHAPE_REPRESENTATION ( '625', ( #146, #23 ), #158 ) ;
#36 = FACE_OUTER_BOUND ( 'NONE', #70, .T. ) ;
#37 = PERSON_AND_ORGANIZATION ( #15, #82 ) ;
#38 = EDGE_CURVE ( 'NONE', #57, #57, #147, .T. ) ;
#39 = CIRCLE ( 'NONE', #108, 2.500000000000000000 ) ;
#40 = PERSON_AND_ORGANIZATION ( #15, #82 ) ;
#41 = ORIENTED_EDGE ( 'NONE', *, *, #38, .F. ) ;
#42 = COORDINATED_UNIVERSAL_TIME_OFFSET ( 1, 0, .AHEAD. ) ;
#43 = DIRECTION ( 'NONE',  ( 4.275831445896958607E-31, 1.000000000000000000, 1.224646799147353207E-16 ) ) ;
#44 = DIRECTION ( 'NONE',  ( -3.491481338843133355E-15, 1.224646799147353207E-16, -1.000000000000000000 ) ) ;
#45 = FACE_OUTER_BOUND ( 'NONE', #21, .T. ) ;
#46 = DATE_AND_TIME ( #60, #133 ) ;
#47 = CC_DESIGN_PERSON_AND_ORGANIZATION_ASSIGNMENT ( #118, #121, ( #16 ) ) ;
#48 = LOCAL_TIME ( 13, 59, 55.00000000000000000, #143 ) ;
#49 = AXIS2_PLACEMENT_3D ( 'NONE', #79, #104, #80 ) ;
#50 = LOCAL_TIME ( 13, 59, 55.00000000000000000, #156 ) ;
#51 = PRODUCT ( '625', '625', '', ( #7 ) ) ;
#52 = EDGE_CURVE ( 'NONE', #19, #19, #137, .T. ) ;
#53 = DIRECTION ( 'NONE',  ( -4.275831445896958607E-31, -1.000000000000000000, -1.224646799147353207E-16 ) ) ;
#54 = CC_DESIGN_PERSON_AND_ORGANIZATION_ASSIGNMENT ( #40, #76, ( #97 ) ) ;
#55 = APPROVAL_STATUS ( 'not_yet_approved' ) ;
#56 = ORIENTED_EDGE ( 'NONE', *, *, #91, .F. ) ;
#57 = VERTEX_POINT ( 'NONE', #167 ) ;
#58 = EDGE_LOOP ( 'NONE', ( #5 ) ) ;
#59 = VERTEX_POINT ( 'NONE', #73 ) ;
#60 = CALENDAR_DATE ( 2021, 6, 12 ) ;
#61 = CLOSED_SHELL ( 'NONE', ( #27, #144, #161, #113 ) ) ;
#62 = LOCAL_TIME ( 13, 59, 55.00000000000000000, #134 ) ;
#63 = ORIENTED_EDGE ( 'NONE', *, *, #91, .T. ) ;
#64 = CARTESIAN_POINT ( 'NONE',  ( -1.603436792211359872E-30, 2.500000000000000000, -4.592425496802574958E-16 ) ) ;
#65 = CARTESIAN_POINT ( 'NONE',  ( 6.982962677686265133E-15, 2.499999999999999556, 1.999999999999999556 ) ) ;
#66 = APPROVAL ( #75, 'UNSPECIFIED' ) ;
#67 = ORIENTED_EDGE ( 'NONE', *, *, #52, .T. ) ;
#68 =( NAMED_UNIT ( * ) PLANE_ANGLE_UNIT ( ) SI_UNIT ( $, .RADIAN. ) );
#69 = EDGE_LOOP ( 'NONE', ( #56 ) ) ;
#70 = EDGE_LOOP ( 'NONE', ( #18 ) ) ;
#71 = FACE_BOUND ( 'NONE', #99, .T. ) ;
#72 = CARTESIAN_POINT ( 'NONE',  ( 6.982962677686261977E-15, -2.449293598294704935E-16, 1.999999999999998668 ) ) ;
#73 = CARTESIAN_POINT ( 'NONE',  ( 6.982962677686266711E-15, 10.00000000000000000, 2.000000000000000000 ) ) ;
#74 = CC_DESIGN_DATE_AND_TIME_ASSIGNMENT ( #98, #30, ( #97 ) ) ;
#75 = APPROVAL_STATUS ( 'not_yet_approved' ) ;
#76 = PERSON_AND_ORGANIZATION_ROLE ( 'classification_officer' ) ;
#77 = AXIS2_PLACEMENT_3D ( 'NONE', #72, #44, #103 ) ;
#78 = PRODUCT_DEFINITION ( 'UNKNOWN', '', #16, #1 ) ;
#79 = CARTESIAN_POINT ( 'NONE',  ( 0.0000000000000000000, 0.0000000000000000000, 0.0000000000000000000 ) ) ;
#80 = DIRECTION ( 'NONE',  ( 4.275831445896958607E-31, 1.000000000000000000, 1.224646799147353207E-16 ) ) ;
#81 = APPLICATION_CONTEXT ( 'configuration controlled 3d designs of mechanical parts and assemblies' ) ;
#82 = ORGANIZATION ( 'UNSPECIFIED', 'UNSPECIFIED', '' ) ;
#83 = PLANE ( 'NONE',  #13 ) ;
#84 =( LENGTH_UNIT ( ) NAMED_UNIT ( * ) SI_UNIT ( .MILLI., .METRE. ) );
#85 = APPROVAL_STATUS ( 'not_yet_approved' ) ;
#86 = ORIENTED_EDGE ( 'NONE', *, *, #153, .T. ) ;
#87 = DIRECTION ( 'NONE',  ( 0.0000000000000000000, 0.0000000000000000000, 1.000000000000000000 ) ) ;
#88 = APPROVAL_PERSON_ORGANIZATION ( #166, #168, #90 ) ;
#89 = DIRECTION ( 'NONE',  ( -3.491481338843133355E-15, 1.224646799147353207E-16, -1.000000000000000000 ) ) ;
#90 = APPROVAL_ROLE ( '' ) ;
#91 = EDGE_CURVE ( 'NONE', #154, #154, #39, .T. ) ;
#92 = PRODUCT_DEFINITION_SHAPE ( 'NONE', 'NONE',  #78 ) ;
#93 = APPROVAL ( #85, 'UNSPECIFIED' ) ;
#94 = UNCERTAINTY_MEASURE_WITH_UNIT (LENGTH_MEASURE( 1.000000000000000082E-05 ), #84, 'distance_accuracy_value', 'NONE');
#95 = PERSON_AND_ORGANIZATION ( #15, #82 ) ;
#96 = CALENDAR_DATE ( 2021, 6, 12 ) ;
#97 = SECURITY_CLASSIFICATION ( '', '', #159 ) ;
#98 = DATE_AND_TIME ( #96, #62 ) ;
#99 = EDGE_LOOP ( 'NONE', ( #150 ) ) ;
#100 = DIRECTION ( 'NONE',  ( -3.491481338843133355E-15, 1.224646799147353207E-16, -1.000000000000000000 ) ) ;
#101 = CALENDAR_DATE ( 2021, 6, 12 ) ;
#102 = PLANE ( 'NONE',  #130 ) ;
#103 = DIRECTION ( 'NONE',  ( 4.622231866529366047E-31, 1.000000000000000000, 1.301042606982605321E-16 ) ) ;
#104 = DIRECTION ( 'NONE',  ( -3.491481338843133355E-15, 1.224646799147353207E-16, -1.000000000000000000 ) ) ;
#105 = APPROVAL_DATE_TIME ( #46, #168 ) ;
#106 = CC_DESIGN_PERSON_AND_ORGANIZATION_ASSIGNMENT ( #6, #117, ( #51 ) ) ;
#107 = SHAPE_DEFINITION_REPRESENTATION ( #92, #35 ) ;
#108 = AXIS2_PLACEMENT_3D ( 'NONE', #155, #110, #160 ) ;
#109 = DIRECTION ( 'NONE',  ( -3.491481338843133355E-15, 1.224646799147353207E-16, -1.000000000000000000 ) ) ;
#110 = DIRECTION ( 'NONE',  ( -3.491481338843133355E-15, 1.224646799147353207E-16, -1.000000000000000000 ) ) ;
#111 = DATE_TIME_ROLE ( 'creation_date' ) ;
#112 = EDGE_LOOP ( 'NONE', ( #41 ) ) ;
#113 = ADVANCED_FACE ( 'NONE', ( #127, #165 ), #139, .F. ) ;
#114 = CARTESIAN_POINT ( 'NONE',  ( 0.0000000000000000000, 2.500000000000000000, 0.0000000000000000000 ) ) ;
#115 = FACE_OUTER_BOUND ( 'NONE', #141, .T. ) ;
#116 = FACE_OUTER_BOUND ( 'NONE', #58, .T. ) ;
#117 = PERSON_AND_ORGANIZATION_ROLE ( 'design_owner' ) ;
#118 = PERSON_AND_ORGANIZATION ( #15, #82 ) ;
#119 = APPROVAL_PERSON_ORGANIZATION ( #37, #93, #140 ) ;
#120 = AXIS2_PLACEMENT_3D ( 'NONE', #124, #100, #135 ) ;
#121 = PERSON_AND_ORGANIZATION_ROLE ( 'creator' ) ;
#122 = AXIS2_PLACEMENT_3D ( 'NONE', #24, #89, #128 ) ;
#123 = CARTESIAN_POINT ( 'NONE',  ( 0.0000000000000000000, 0.0000000000000000000, 0.0000000000000000000 ) ) ;
#124 = CARTESIAN_POINT ( 'NONE',  ( 6.982962677686265133E-15, -2.449293598294705921E-16, 1.999999999999999556 ) ) ;
#125 = EDGE_LOOP ( 'NONE', ( #63 ) ) ;
#126 = DATE_AND_TIME ( #101, #50 ) ;
#127 = FACE_OUTER_BOUND ( 'NONE', #125, .T. ) ;
#128 = DIRECTION ( 'NONE',  ( 4.275831445896958607E-31, 1.000000000000000000, 1.224646799147353207E-16 ) ) ;
#129 = CALENDAR_DATE ( 2021, 6, 12 ) ;
#130 = AXIS2_PLACEMENT_3D ( 'NONE', #65, #10, #53 ) ;
#131 = CC_DESIGN_APPROVAL ( #168, ( #78 ) ) ;
#132 = APPROVAL_DATE_TIME ( #29, #66 ) ;
#133 = LOCAL_TIME ( 13, 59, 55.00000000000000000, #42 ) ;
#134 = COORDINATED_UNIVERSAL_TIME_OFFSET ( 1, 0, .AHEAD. ) ;
#135 = DIRECTION ( 'NONE',  ( 6.162975822039154730E-31, 1.000000000000000000, 1.734723475976807094E-16 ) ) ;
#136 = DIRECTION ( 'NONE',  ( 4.275831445896958607E-31, 1.000000000000000000, 1.224646799147353207E-16 ) ) ;
#137 = CIRCLE ( 'NONE', #22, 10.00000000000000000 ) ;
#138 = APPLICATION_CONTEXT ( 'configuration controlled 3d designs of mechanical parts and assemblies' ) ;
#139 = CYLINDRICAL_SURFACE ( 'NONE', #49, 2.500000000000000000 ) ;
#140 = APPROVAL_ROLE ( '' ) ;
#141 = EDGE_LOOP ( 'NONE', ( #67 ) ) ;
#142 = CYLINDRICAL_SURFACE ( 'NONE', #122, 10.00000000000000000 ) ;
#143 = COORDINATED_UNIVERSAL_TIME_OFFSET ( 1, 0, .AHEAD. ) ;
#144 = ADVANCED_FACE ( 'NONE', ( #45, #36 ), #142, .T. ) ;
#145 = COORDINATED_UNIVERSAL_TIME_OFFSET ( 1, 0, .AHEAD. ) ;
#146 = MANIFOLD_SOLID_BREP ( 'Corps-Déplacer/Copier1', #61 ) ;
#147 = CIRCLE ( 'NONE', #120, 2.500000000000000000 ) ;
#148 = PERSON_AND_ORGANIZATION_ROLE ( 'design_supplier' ) ;
#149 = DIRECTION ( 'NONE',  ( -3.491481338843133355E-15, 1.224646799147353207E-16, -1.000000000000000000 ) ) ;
#150 = ORIENTED_EDGE ( 'NONE', *, *, #38, .T. ) ;
#151 =( NAMED_UNIT ( * ) SI_UNIT ( $, .STERADIAN. ) SOLID_ANGLE_UNIT ( ) );
#152 = APPLICATION_PROTOCOL_DEFINITION ( 'international standard', 'config_control_design', 1994, #81 ) ;
#153 = EDGE_CURVE ( 'NONE', #59, #59, #157, .T. ) ;
#154 = VERTEX_POINT ( 'NONE', #114 ) ;
#155 = CARTESIAN_POINT ( 'NONE',  ( -1.068957861474239564E-30, 3.749399456654644020E-32, -3.061616997868383141E-16 ) ) ;
#156 = COORDINATED_UNIVERSAL_TIME_OFFSET ( 1, 0, .AHEAD. ) ;
#157 = CIRCLE ( 'NONE', #77, 10.00000000000000000 ) ;
#158 =( GEOMETRIC_REPRESENTATION_CONTEXT ( 3 ) GLOBAL_UNCERTAINTY_ASSIGNED_CONTEXT ( ( #94 ) ) GLOBAL_UNIT_ASSIGNED_CONTEXT ( ( #84, #68, #151 ) ) REPRESENTATION_CONTEXT ( 'NONE', 'WORKASPACE' ) );
#159 = SECURITY_CLASSIFICATION_LEVEL ( 'unclassified' ) ;
#160 = DIRECTION ( 'NONE',  ( 4.275831445896958607E-31, 1.000000000000000000, 1.224646799147353207E-16 ) ) ;
#161 = ADVANCED_FACE ( 'NONE', ( #71, #116 ), #102, .T. ) ;
#162 = PERSON_AND_ORGANIZATION_ROLE ( 'creator' ) ;
#163 = CARTESIAN_POINT ( 'NONE',  ( -4.275831445896958256E-30, 1.499759782661857608E-31, -1.224646799147353256E-15 ) ) ;
#164 = FACE_BOUND ( 'NONE', #69, .T. ) ;
#165 = FACE_OUTER_BOUND ( 'NONE', #112, .T. ) ;
#166 = PERSON_AND_ORGANIZATION ( #15, #82 ) ;
#167 = CARTESIAN_POINT ( 'NONE',  ( 6.982962677686266711E-15, 2.499999999999999556, 2.000000000000000000 ) ) ;
#168 = APPROVAL ( #55, 'UNSPECIFIED' ) ;
#169 = CC_DESIGN_APPROVAL ( #93, ( #16 ) ) ;
ENDSEC;
END-ISO-10303-21;
