ISO-10303-21;
HEADER;
FILE_DESCRIPTION (( 'STEP AP203' ),
    '1' );
FILE_NAME ('62426.step',
    '2021-11-17T10:20:15',
    ( '' ),
    ( '' ),
    'SwSTEP 2.0',
    'SolidWorks 2019',
    '' );
FILE_SCHEMA (( 'CONFIG_CONTROL_DESIGN' ));
ENDSEC;

DATA;
#1 = EDGE_CURVE ( 'NONE', #13, #13, #136, .T. ) ;
#2 = AXIS2_PLACEMENT_3D ( 'NONE', #188, #33, #48 ) ;
#3 = PERSON_AND_ORGANIZATION_ROLE ( 'design_owner' ) ;
#4 = ORIENTED_EDGE ( 'NONE', *, *, #22, .T. ) ;
#5 = EDGE_LOOP ( 'NONE', ( #57 ) ) ;
#6 = LOCAL_TIME ( 11, 20, 15.00000000000000000, #114 ) ;
#7 = DATE_TIME_ROLE ( 'classification_date' ) ;
#8 = FACE_BOUND ( 'NONE', #233, .T. ) ;
#9 = PLANE ( 'NONE',  #104 ) ;
#10 = DIRECTION ( 'NONE',  ( 3.491481338843133355E-15, -0.0000000000000000000, 1.000000000000000000 ) ) ;
#11 = CARTESIAN_POINT ( 'NONE',  ( 2.496409157272840412E-13, 4.999999999999990230, 71.50000000000000000 ) ) ;
#12 = FACE_BOUND ( 'NONE', #78, .T. ) ;
#13 = VERTEX_POINT ( 'NONE', #204 ) ;
#14 = AXIS2_PLACEMENT_3D ( 'NONE', #207, #163, #238 ) ;
#15 = EDGE_CURVE ( 'NONE', #185, #185, #186, .T. ) ;
#16 = APPROVAL_ROLE ( '' ) ;
#17 = AXIS2_PLACEMENT_3D ( 'NONE', #195, #10, #99 ) ;
#18 = PERSON_AND_ORGANIZATION ( #88, #132 ) ;
#19 = CC_DESIGN_PERSON_AND_ORGANIZATION_ASSIGNMENT ( #191, #222, ( #146 ) ) ;
#20 = APPLICATION_CONTEXT ( 'configuration controlled 3d designs of mechanical parts and assemblies' ) ;
#21 = DIRECTION ( 'NONE',  ( -4.333342374871280669E-31, -1.000000000000000000, -1.219727444046192488E-16 ) ) ;
#22 = EDGE_CURVE ( 'NONE', #66, #66, #210, .T. ) ;
#23 = EDGE_LOOP ( 'NONE', ( #208 ) ) ;
#24 = CARTESIAN_POINT ( 'NONE',  ( 6.982962677686255864E-16, -2.435834570415086921E-17, 0.1999999999999996780 ) ) ;
#25 = CC_DESIGN_APPROVAL ( #158, ( #106 ) ) ;
#26 = ADVANCED_FACE ( 'NONE', ( #213 ), #9, .T. ) ;
#27 = CARTESIAN_POINT ( 'NONE',  ( 2.496409157272840412E-13, -8.756224613903574137E-15, 71.50000000000000000 ) ) ;
#28 = ORIENTED_EDGE ( 'NONE', *, *, #1, .T. ) ;
#29 = CARTESIAN_POINT ( 'NONE',  ( 0.0000000000000000000, 0.0000000000000000000, 0.0000000000000000000 ) ) ;
#30 = CONICAL_SURFACE ( 'NONE', #34, 4.999999999999999112, 0.7853981633974466137 ) ;
#31 = CARTESIAN_POINT ( 'NONE',  ( 4.000000000000054179, 0.0000000000000000000, 15.99999999999998579 ) ) ;
#32 = VERTEX_POINT ( 'NONE', #94 ) ;
#33 = DIRECTION ( 'NONE',  ( 3.491481338843133355E-15, -1.217917285207545432E-16, 1.000000000000000000 ) ) ;
#34 = AXIS2_PLACEMENT_3D ( 'NONE', #140, #214, #43 ) ;
#35 = CARTESIAN_POINT ( 'NONE',  ( 2.513866563967056016E-13, 3.374459510989167028E-32, 72.00000000000000000 ) ) ;
#36 = ORIENTED_EDGE ( 'NONE', *, *, #135, .F. ) ;
#37 = APPROVAL_ROLE ( '' ) ;
#38 = PERSON_AND_ORGANIZATION_ROLE ( 'creator' ) ;
#39 = FACE_OUTER_BOUND ( 'NONE', #23, .T. ) ;
#40 = DIRECTION ( 'NONE',  ( -4.275831445896958607E-31, -1.000000000000000000, -1.224646799147353207E-16 ) ) ;
#41 = ADVANCED_FACE ( 'NONE', ( #201 ), #231, .T. ) ;
#42 = CALENDAR_DATE ( 2021, 17, 11 ) ;
#43 = DIRECTION ( 'NONE',  ( 0.0000000000000000000, 1.000000000000000000, 0.0000000000000000000 ) ) ;
#44 = ORIENTED_EDGE ( 'NONE', *, *, #154, .T. ) ;
#45 = DIRECTION ( 'NONE',  ( -4.252335473556635820E-31, -1.000000000000000000, -1.217917285207545432E-16 ) ) ;
#46 = FACE_OUTER_BOUND ( 'NONE', #193, .T. ) ;
#47 = TOROIDAL_SURFACE ( 'NONE', #137, 11.99999999999999645, 8.000000000000000000 ) ;
#48 = DIRECTION ( 'NONE',  ( -4.333342374871280669E-31, -1.000000000000000000, -1.219727444046192488E-16 ) ) ;
#49 = CARTESIAN_POINT ( 'NONE',  ( -3.231774959903042207E-30, -3.799999999999998934, -9.256171367577343117E-16 ) ) ;
#50 = CLOSED_SHELL ( 'NONE', ( #162, #129, #226, #187, #169 ) ) ;
#51 = CALENDAR_DATE ( 2021, 17, 11 ) ;
#52 = DATE_AND_TIME ( #224, #6 ) ;
#53 = CIRCLE ( 'NONE', #203, 4.000000000000000000 ) ;
#54 = CC_DESIGN_PERSON_AND_ORGANIZATION_ASSIGNMENT ( #198, #177, ( #197 ) ) ;
#55 = AXIS2_PLACEMENT_3D ( 'NONE', #103, #59, #181 ) ;
#56 = AXIS2_PLACEMENT_3D ( 'NONE', #29, #86, #161 ) ;
#57 = ORIENTED_EDGE ( 'NONE', *, *, #98, .T. ) ;
#58 = PERSON_AND_ORGANIZATION ( #88, #132 ) ;
#59 = DIRECTION ( 'NONE',  ( -3.491481338843133355E-15, 1.224646799147353207E-16, -1.000000000000000000 ) ) ;
#60 = APPROVAL_ROLE ( '' ) ;
#61 = FACE_OUTER_BOUND ( 'NONE', #160, .T. ) ;
#62 = PERSON_AND_ORGANIZATION_ROLE ( 'design_supplier' ) ;
#63 = EDGE_LOOP ( 'NONE', ( #175 ) ) ;
#64 = AXIS2_PLACEMENT_3D ( 'NONE', #179, #174, #122 ) ;
#65 = DIRECTION ( 'NONE',  ( -3.491481338843133355E-15, 1.224646799147353207E-16, -1.000000000000000000 ) ) ;
#66 = VERTEX_POINT ( 'NONE', #31 ) ;
#67 = FACE_OUTER_BOUND ( 'NONE', #76, .T. ) ;
#68 = CARTESIAN_POINT ( 'NONE',  ( -4.999999999999929834, 0.0000000000000000000, 19.87298334620743745 ) ) ;
#69 = DIRECTION ( 'NONE',  ( 1.000000000000000000, 0.0000000000000000000, -3.491481338843133355E-15 ) ) ;
#70 = CC_DESIGN_APPROVAL ( #223, ( #146 ) ) ;
#71 = ORIENTED_EDGE ( 'NONE', *, *, #22, .F. ) ;
#72 = EDGE_LOOP ( 'NONE', ( #82 ) ) ;
#73 = PRODUCT_RELATED_PRODUCT_CATEGORY ( 'detail', '', ( #209 ) ) ;
#74 = APPLICATION_PROTOCOL_DEFINITION ( 'international standard', 'config_control_design', 1994, #20 ) ;
#75 = APPROVAL_STATUS ( 'not_yet_approved' ) ;
#76 = EDGE_LOOP ( 'NONE', ( #180 ) ) ;
#77 = ADVANCED_FACE ( 'NONE', ( #212, #39 ), #81, .T. ) ;
#78 = EDGE_LOOP ( 'NONE', ( #155 ) ) ;
#79 = DESIGN_CONTEXT ( 'detailed design', #20, 'design' ) ;
#80 = COORDINATED_UNIVERSAL_TIME_OFFSET ( 1, 0, .AHEAD. ) ;
#81 = CYLINDRICAL_SURFACE ( 'NONE', #17, 4.000000000000000000 ) ;
#82 = ORIENTED_EDGE ( 'NONE', *, *, #15, .F. ) ;
#83 = AXIS2_PLACEMENT_3D ( 'NONE', #139, #65, #138 ) ;
#84 = EDGE_LOOP ( 'NONE', ( #228 ) ) ;
#85 = CONICAL_SURFACE ( 'NONE', #2, 4.000000000000000000, 0.7853981633974503884 ) ;
#86 = DIRECTION ( 'NONE',  ( 0.0000000000000000000, 0.0000000000000000000, 1.000000000000000000 ) ) ;
#87 = MANIFOLD_SOLID_BREP ( 'Corps-Déplacer/Copier1[1]', #50 ) ;
#88 = PERSON ( 'UNSPECIFIED', 'UNSPECIFIED', 'UNSPECIFIED', ('UNSPECIFIED'), ('UNSPECIFIED'), ('UNSPECIFIED') ) ;
#89 = PLANE ( 'NONE',  #221 ) ;
#90 = MANIFOLD_SOLID_BREP ( 'Corps-Déplacer/Copier1[2]', #111 ) ;
#91 = DIRECTION ( 'NONE',  ( -4.275831445896958607E-31, -1.000000000000000000, -1.224646799147353207E-16 ) ) ;
#92 = LOCAL_TIME ( 11, 20, 15.00000000000000000, #80 ) ;
#93 = FACE_OUTER_BOUND ( 'NONE', #72, .T. ) ;
#94 = CARTESIAN_POINT ( 'NONE',  ( 6.982962677686239100E-16, -4.000000000000000000, 0.1999999999999992062 ) ) ;
#95 = COORDINATED_UNIVERSAL_TIME_OFFSET ( 1, 0, .AHEAD. ) ;
#96 = CC_DESIGN_SECURITY_CLASSIFICATION ( #197, ( #106 ) ) ;
#97 = APPROVAL_DATE_TIME ( #152, #223 ) ;
#98 = EDGE_CURVE ( 'NONE', #131, #131, #128, .T. ) ;
#99 = DIRECTION ( 'NONE',  ( 1.000000000000000000, 0.0000000000000000000, -3.491481338843133355E-15 ) ) ;
#100 = APPROVAL_PERSON_ORGANIZATION ( #18, #158, #37 ) ;
#101 = CARTESIAN_POINT ( 'NONE',  ( 5.586370142149013368E-14, 0.0000000000000000000, 16.00000000000000000 ) ) ;
#102 = DIRECTION ( 'NONE',  ( -3.491481338843133355E-15, 1.224646799147353207E-16, -1.000000000000000000 ) ) ;
#103 = CARTESIAN_POINT ( 'NONE',  ( -1.068957861474239564E-30, 3.749399456654644020E-32, -3.061616997868383141E-16 ) ) ;
#104 = AXIS2_PLACEMENT_3D ( 'NONE', #215, #156, #40 ) ;
#105 = FACE_OUTER_BOUND ( 'NONE', #84, .T. ) ;
#106 = PRODUCT_DEFINITION_FORMATION_WITH_SPECIFIED_SOURCE ( 'ANY', '', #209, .NOT_KNOWN. ) ;
#107 = VERTEX_POINT ( 'NONE', #49 ) ;
#108 = EDGE_CURVE ( 'NONE', #32, #32, #53, .T. ) ;
#109 = PLANE ( 'NONE',  #172 ) ;
#110 =( LENGTH_UNIT ( ) NAMED_UNIT ( * ) SI_UNIT ( .MILLI., .METRE. ) );
#111 = CLOSED_SHELL ( 'NONE', ( #77, #26, #219, #41 ) ) ;
#112 = APPLICATION_PROTOCOL_DEFINITION ( 'international standard', 'config_control_design', 1994, #170 ) ;
#113 = COORDINATED_UNIVERSAL_TIME_OFFSET ( 1, 0, .AHEAD. ) ;
#114 = COORDINATED_UNIVERSAL_TIME_OFFSET ( 1, 0, .AHEAD. ) ;
#115 = APPROVAL_DATE_TIME ( #52, #158 ) ;
#116 = APPROVAL_PERSON_ORGANIZATION ( #153, #223, #16 ) ;
#117 = DATE_AND_TIME ( #227, #241 ) ;
#118 = COORDINATED_UNIVERSAL_TIME_OFFSET ( 1, 0, .AHEAD. ) ;
#119 = CARTESIAN_POINT ( 'NONE',  ( 5.586370142149013368E-14, 0.0000000000000000000, 16.00000000000000000 ) ) ;
#120 = CC_DESIGN_PERSON_AND_ORGANIZATION_ASSIGNMENT ( #173, #3, ( #209 ) ) ;
#121 = SECURITY_CLASSIFICATION_LEVEL ( 'unclassified' ) ;
#122 = DIRECTION ( 'NONE',  ( -1.000000000000000000, 0.0000000000000000000, 3.469446951953614978E-15 ) ) ;
#123 = APPROVAL_STATUS ( 'not_yet_approved' ) ;
#124 = EDGE_LOOP ( 'NONE', ( #71 ) ) ;
#125 = APPROVAL ( #123, 'UNSPECIFIED' ) ;
#126 = DIRECTION ( 'NONE',  ( 3.491481338843133355E-15, -0.0000000000000000000, 1.000000000000000000 ) ) ;
#127 = CARTESIAN_POINT ( 'NONE',  ( 5.586370142149013368E-14, 3.749399456654640735E-32, 16.00000000000000000 ) ) ;
#128 = CIRCLE ( 'NONE', #64, 4.999999999999999112 ) ;
#129 = ADVANCED_FACE ( 'NONE', ( #8, #61 ), #30, .T. ) ;
#130 = FACE_OUTER_BOUND ( 'NONE', #124, .T. ) ;
#131 = VERTEX_POINT ( 'NONE', #68 ) ;
#132 = ORGANIZATION ( 'UNSPECIFIED', 'UNSPECIFIED', '' ) ;
#133 = DATE_AND_TIME ( #51, #176 ) ;
#134 = PERSON_AND_ORGANIZATION ( #88, #132 ) ;
#135 = EDGE_CURVE ( 'NONE', #107, #107, #148, .T. ) ;
#136 = CIRCLE ( 'NONE', #229, 3.999999999999998224 ) ;
#137 = AXIS2_PLACEMENT_3D ( 'NONE', #184, #206, #69 ) ;
#138 = DIRECTION ( 'NONE',  ( 0.0000000000000000000, 1.000000000000000000, 0.0000000000000000000 ) ) ;
#139 = CARTESIAN_POINT ( 'NONE',  ( 2.513866563967056016E-13, -8.817456953860941711E-15, 72.00000000000000000 ) ) ;
#140 = CARTESIAN_POINT ( 'NONE',  ( 2.496409157272840412E-13, -8.756224613903574137E-15, 71.50000000000000000 ) ) ;
#141 = CC_DESIGN_PERSON_AND_ORGANIZATION_ASSIGNMENT ( #190, #62, ( #106 ) ) ;
#142 = APPROVAL_PERSON_ORGANIZATION ( #58, #125, #60 ) ;
#143 = DIRECTION ( 'NONE',  ( 1.000000000000000000, 0.0000000000000000000, -3.469446951953615767E-15 ) ) ;
#144 = CARTESIAN_POINT ( 'NONE',  ( -1.615887479951521103E-30, 5.636625551707806507E-32, -4.628085683788671558E-16 ) ) ;
#145 =( NAMED_UNIT ( * ) PLANE_ANGLE_UNIT ( ) SI_UNIT ( $, .RADIAN. ) );
#146 = PRODUCT_DEFINITION ( 'UNKNOWN', '', #106, #79 ) ;
#147 = DIRECTION ( 'NONE',  ( 4.275831445896958607E-31, 1.000000000000000000, 1.224646799147353207E-16 ) ) ;
#148 = CIRCLE ( 'NONE', #192, 3.799999999999998934 ) ;
#149 = EDGE_LOOP ( 'NONE', ( #36 ) ) ;
#150 = MECHANICAL_CONTEXT ( 'NONE', #170, 'mechanical' ) ;
#151 = EDGE_LOOP ( 'NONE', ( #4 ) ) ;
#152 = DATE_AND_TIME ( #167, #183 ) ;
#153 = PERSON_AND_ORGANIZATION ( #88, #132 ) ;
#154 = EDGE_CURVE ( 'NONE', #240, #240, #234, .T. ) ;
#155 = ORIENTED_EDGE ( 'NONE', *, *, #135, .T. ) ;
#156 = DIRECTION ( 'NONE',  ( 3.491481338843133355E-15, -1.224646799147353207E-16, 1.000000000000000000 ) ) ;
#157 = DIRECTION ( 'NONE',  ( 3.491481338843133355E-15, -0.0000000000000000000, 1.000000000000000000 ) ) ;
#158 = APPROVAL ( #75, 'UNSPECIFIED' ) ;
#159 = ORIENTED_EDGE ( 'NONE', *, *, #154, .F. ) ;
#160 = EDGE_LOOP ( 'NONE', ( #159 ) ) ;
#161 = DIRECTION ( 'NONE',  ( 1.000000000000000000, 0.0000000000000000000, 0.0000000000000000000 ) ) ;
#162 = ADVANCED_FACE ( 'NONE', ( #46, #205 ), #164, .T. ) ;
#163 = DIRECTION ( 'NONE',  ( -3.491481338843133355E-15, 1.224646799147353207E-16, -1.000000000000000000 ) ) ;
#164 = CYLINDRICAL_SURFACE ( 'NONE', #14, 4.999999999999999112 ) ;
#165 = CC_DESIGN_PERSON_AND_ORGANIZATION_ASSIGNMENT ( #134, #38, ( #106 ) ) ;
#166 = DIRECTION ( 'NONE',  ( 3.491481338843133355E-15, -1.224646799147353207E-16, 1.000000000000000000 ) ) ;
#167 = CALENDAR_DATE ( 2021, 17, 11 ) ;
#168 =( GEOMETRIC_REPRESENTATION_CONTEXT ( 3 ) GLOBAL_UNCERTAINTY_ASSIGNED_CONTEXT ( ( #199 ) ) GLOBAL_UNIT_ASSIGNED_CONTEXT ( ( #110, #145, #237 ) ) REPRESENTATION_CONTEXT ( 'NONE', 'WORKASPACE' ) );
#169 = ADVANCED_FACE ( 'NONE', ( #130 ), #109, .F. ) ;
#170 = APPLICATION_CONTEXT ( 'configuration controlled 3d designs of mechanical parts and assemblies' ) ;
#171 = DATE_TIME_ROLE ( 'creation_date' ) ;
#172 = AXIS2_PLACEMENT_3D ( 'NONE', #127, #166, #91 ) ;
#173 = PERSON_AND_ORGANIZATION ( #88, #132 ) ;
#174 = DIRECTION ( 'NONE',  ( 3.491481338843133355E-15, -0.0000000000000000000, 1.000000000000000000 ) ) ;
#175 = ORIENTED_EDGE ( 'NONE', *, *, #1, .F. ) ;
#176 = LOCAL_TIME ( 11, 20, 15.00000000000000000, #113 ) ;
#177 = PERSON_AND_ORGANIZATION_ROLE ( 'classification_officer' ) ;
#178 = CC_DESIGN_DATE_AND_TIME_ASSIGNMENT ( #133, #171, ( #146 ) ) ;
#179 = CARTESIAN_POINT ( 'NONE',  ( 6.938615050042357760E-14, 0.0000000000000000000, 19.87298334620741969 ) ) ;
#180 = ORIENTED_EDGE ( 'NONE', *, *, #108, .F. ) ;
#181 = DIRECTION ( 'NONE',  ( 4.275831445896958607E-31, 1.000000000000000000, 1.224646799147353207E-16 ) ) ;
#182 = AXIS2_PLACEMENT_3D ( 'NONE', #119, #157, #143 ) ;
#183 = LOCAL_TIME ( 11, 20, 15.00000000000000000, #95 ) ;
#184 = CARTESIAN_POINT ( 'NONE',  ( 5.586370142149013368E-14, 0.0000000000000000000, 16.00000000000000000 ) ) ;
#185 = VERTEX_POINT ( 'NONE', #239 ) ;
#186 = CIRCLE ( 'NONE', #83, 4.500000000000000888 ) ;
#187 = ADVANCED_FACE ( 'NONE', ( #105, #220 ), #47, .F. ) ;
#188 = CARTESIAN_POINT ( 'NONE',  ( 6.982962677686255864E-16, -2.435834570415086921E-17, 0.1999999999999996780 ) ) ;
#189 = PRODUCT_DEFINITION_SHAPE ( 'NONE', 'NONE',  #146 ) ;
#190 = PERSON_AND_ORGANIZATION ( #88, #132 ) ;
#191 = PERSON_AND_ORGANIZATION ( #88, #132 ) ;
#192 = AXIS2_PLACEMENT_3D ( 'NONE', #144, #200, #45 ) ;
#193 = EDGE_LOOP ( 'NONE', ( #44 ) ) ;
#194 = SHAPE_DEFINITION_REPRESENTATION ( #189, #202 ) ;
#195 = CARTESIAN_POINT ( 'NONE',  ( -6.413747168845438786E-31, 0.0000000000000000000, -1.836970198721029934E-16 ) ) ;
#196 = EDGE_LOOP ( 'NONE', ( #28 ) ) ;
#197 = SECURITY_CLASSIFICATION ( '', '', #121 ) ;
#198 = PERSON_AND_ORGANIZATION ( #88, #132 ) ;
#199 = UNCERTAINTY_MEASURE_WITH_UNIT (LENGTH_MEASURE( 1.000000000000000082E-05 ), #110, 'distance_accuracy_value', 'NONE');
#200 = DIRECTION ( 'NONE',  ( 3.491481338843133355E-15, -1.217917285207545432E-16, 1.000000000000000000 ) ) ;
#201 = FACE_OUTER_BOUND ( 'NONE', #149, .T. ) ;
#202 = ADVANCED_BREP_SHAPE_REPRESENTATION ( '62426', ( #87, #90, #56 ), #168 ) ;
#203 = AXIS2_PLACEMENT_3D ( 'NONE', #24, #217, #21 ) ;
#204 = CARTESIAN_POINT ( 'NONE',  ( 4.000000000000054179, 0.0000000000000000000, 15.99999999999998579 ) ) ;
#205 = FACE_OUTER_BOUND ( 'NONE', #5, .T. ) ;
#206 = DIRECTION ( 'NONE',  ( 3.491481338843133355E-15, -0.0000000000000000000, 1.000000000000000000 ) ) ;
#207 = CARTESIAN_POINT ( 'NONE',  ( 0.0000000000000000000, 0.0000000000000000000, 0.0000000000000000000 ) ) ;
#208 = ORIENTED_EDGE ( 'NONE', *, *, #108, .T. ) ;
#209 = PRODUCT ( '62426', '62426', '', ( #150 ) ) ;
#210 = CIRCLE ( 'NONE', #182, 3.999999999999998224 ) ;
#211 = AXIS2_PLACEMENT_3D ( 'NONE', #27, #102, #218 ) ;
#212 = FACE_OUTER_BOUND ( 'NONE', #63, .T. ) ;
#213 = FACE_OUTER_BOUND ( 'NONE', #196, .T. ) ;
#214 = DIRECTION ( 'NONE',  ( -3.491481338843133355E-15, 1.224646799147353207E-16, -1.000000000000000000 ) ) ;
#215 = CARTESIAN_POINT ( 'NONE',  ( 5.586370142149013368E-14, 3.749399456654640735E-32, 16.00000000000000000 ) ) ;
#216 = CC_DESIGN_DATE_AND_TIME_ASSIGNMENT ( #230, #7, ( #197 ) ) ;
#217 = DIRECTION ( 'NONE',  ( 3.491481338843133355E-15, -1.217917285207545432E-16, 1.000000000000000000 ) ) ;
#218 = DIRECTION ( 'NONE',  ( 0.0000000000000000000, 1.000000000000000000, 0.0000000000000000000 ) ) ;
#219 = ADVANCED_FACE ( 'NONE', ( #12, #67 ), #85, .T. ) ;
#220 = FACE_OUTER_BOUND ( 'NONE', #151, .T. ) ;
#221 = AXIS2_PLACEMENT_3D ( 'NONE', #35, #236, #147 ) ;
#222 = PERSON_AND_ORGANIZATION_ROLE ( 'creator' ) ;
#223 = APPROVAL ( #242, 'UNSPECIFIED' ) ;
#224 = CALENDAR_DATE ( 2021, 17, 11 ) ;
#225 = CC_DESIGN_APPROVAL ( #125, ( #197 ) ) ;
#226 = ADVANCED_FACE ( 'NONE', ( #93 ), #89, .F. ) ;
#227 = CALENDAR_DATE ( 2021, 17, 11 ) ;
#228 = ORIENTED_EDGE ( 'NONE', *, *, #98, .F. ) ;
#229 = AXIS2_PLACEMENT_3D ( 'NONE', #101, #126, #235 ) ;
#230 = DATE_AND_TIME ( #42, #92 ) ;
#231 = PLANE ( 'NONE',  #55 ) ;
#232 = APPROVAL_DATE_TIME ( #117, #125 ) ;
#233 = EDGE_LOOP ( 'NONE', ( #243 ) ) ;
#234 = CIRCLE ( 'NONE', #211, 4.999999999999999112 ) ;
#235 = DIRECTION ( 'NONE',  ( 1.000000000000000000, 0.0000000000000000000, -3.469446951953615767E-15 ) ) ;
#236 = DIRECTION ( 'NONE',  ( -3.491481338843133355E-15, 1.224646799147353207E-16, -1.000000000000000000 ) ) ;
#237 =( NAMED_UNIT ( * ) SI_UNIT ( $, .STERADIAN. ) SOLID_ANGLE_UNIT ( ) );
#238 = DIRECTION ( 'NONE',  ( 4.275831445896958607E-31, 1.000000000000000000, 1.224646799147353207E-16 ) ) ;
#239 = CARTESIAN_POINT ( 'NONE',  ( 2.513866563967056016E-13, 4.499999999999992006, 72.00000000000000000 ) ) ;
#240 = VERTEX_POINT ( 'NONE', #11 ) ;
#241 = LOCAL_TIME ( 11, 20, 15.00000000000000000, #118 ) ;
#242 = APPROVAL_STATUS ( 'not_yet_approved' ) ;
#243 = ORIENTED_EDGE ( 'NONE', *, *, #15, .T. ) ;
ENDSEC;
END-ISO-10303-21;
