ISO-10303-21;
HEADER;
FILE_DESCRIPTION (( 'STEP AP203' ),
    '1' );
FILE_NAME ('62414.step',
    '2021-10-15T09:33:54',
    ( '' ),
    ( '' ),
    'SwSTEP 2.0',
    'SolidWorks 2019',
    '' );
FILE_SCHEMA (( 'CONFIG_CONTROL_DESIGN' ));
ENDSEC;

DATA;
#1 = DIRECTION ( 'NONE',  ( 3.491481338843133355E-15, 1.224646799147354045E-15, 1.000000000000000000 ) ) ;
#2 = CYLINDRICAL_SURFACE ( 'NONE', #198, 2.549999999999975842 ) ;
#3 = PERSON ( 'UNSPECIFIED', 'UNSPECIFIED', 'UNSPECIFIED', ('UNSPECIFIED'), ('UNSPECIFIED'), ('UNSPECIFIED') ) ;
#4 = CARTESIAN_POINT ( 'NONE',  ( 1.047444401652940007E-13, -2.549999999999938982, 30.00000000000000000 ) ) ;
#5 = CONICAL_SURFACE ( 'NONE', #147, 2.549999999999998046, 1.082104136236484937 ) ;
#6 = VERTEX_POINT ( 'NONE', #103 ) ;
#7 = EDGE_CURVE ( 'NONE', #158, #158, #45, .T. ) ;
#8 =( LENGTH_UNIT ( ) NAMED_UNIT ( * ) SI_UNIT ( .MILLI., .METRE. ) );
#9 = DATE_AND_TIME ( #190, #63 ) ;
#10 = CLOSED_SHELL ( 'NONE', ( #60, #214, #25, #246, #242, #28 ) ) ;
#11 = PRODUCT_DEFINITION_FORMATION_WITH_SPECIFIED_SOURCE ( 'ANY', '', #81, .NOT_KNOWN. ) ;
#12 = DATE_AND_TIME ( #31, #58 ) ;
#13 = PERSON_AND_ORGANIZATION ( #3, #169 ) ;
#14 = DIRECTION ( 'NONE',  ( 1.000000000000000000, 0.0000000000000000000, 0.0000000000000000000 ) ) ;
#15 = CC_DESIGN_APPROVAL ( #56, ( #11 ) ) ;
#16 = ORIENTED_EDGE ( 'NONE', *, *, #7, .F. ) ;
#17 = FACE_OUTER_BOUND ( 'NONE', #199, .T. ) ;
#18 = PLANE ( 'NONE',  #217 ) ;
#19 = AXIS2_PLACEMENT_3D ( 'NONE', #79, #121, #97 ) ;
#20 = DIRECTION ( 'NONE',  ( 4.275831445896959482E-31, 1.000000000000000000, 1.224646799147353207E-16 ) ) ;
#21 = CARTESIAN_POINT ( 'NONE',  ( 3.533357104877813352E-15, 1.239334840657324148E-15, 1.011993696076449512 ) ) ;
#22 = FACE_OUTER_BOUND ( 'NONE', #260, .T. ) ;
#23 = LOCAL_TIME ( 11, 33, 54.00000000000000000, #34 ) ;
#24 = DIRECTION ( 'NONE',  ( 0.0000000000000000000, 1.000000000000000000, 0.0000000000000000000 ) ) ;
#25 = ADVANCED_FACE ( 'NONE', ( #53 ), #18, .F. ) ;
#26 = CARTESIAN_POINT ( 'NONE',  ( 1.187103655206665341E-13, 2.549999999999994937, 34.00000000000000000 ) ) ;
#27 = CARTESIAN_POINT ( 'NONE',  ( 1.244554174395937292E-13, 4.365308412458737347E-14, 35.64544826719043868 ) ) ;
#28 = ADVANCED_FACE ( 'NONE', ( #17 ), #261, .F. ) ;
#29 = VERTEX_POINT ( 'NONE', #229 ) ;
#30 = APPROVAL_ROLE ( '' ) ;
#31 = CALENDAR_DATE ( 2021, 15, 10 ) ;
#32 = CALENDAR_DATE ( 2021, 15, 10 ) ;
#33 = PERSON_AND_ORGANIZATION_ROLE ( 'design_owner' ) ;
#34 = COORDINATED_UNIVERSAL_TIME_OFFSET ( 1, 0, .AHEAD. ) ;
#35 = CC_DESIGN_APPROVAL ( #91, ( #76 ) ) ;
#36 = DIRECTION ( 'NONE',  ( 3.491481338843133355E-15, -1.224646799147353207E-16, 1.000000000000000000 ) ) ;
#37 = DIRECTION ( 'NONE',  ( -3.491481338843133355E-15, 1.224646799147353207E-16, -1.000000000000000000 ) ) ;
#38 = DIRECTION ( 'NONE',  ( -3.491481338843133355E-15, 1.224646799147353207E-16, -1.000000000000000000 ) ) ;
#39 = ORIENTED_EDGE ( 'NONE', *, *, #7, .T. ) ;
#40 = ORIENTED_EDGE ( 'NONE', *, *, #161, .F. ) ;
#41 = DIRECTION ( 'NONE',  ( -4.229493211203381281E-30, 1.000000000000000000, -1.190496503121349405E-15 ) ) ;
#42 = VERTEX_POINT ( 'NONE', #162 ) ;
#43 = DIRECTION ( 'NONE',  ( 0.0000000000000000000, 1.000000000000000000, 0.0000000000000000000 ) ) ;
#44 = CARTESIAN_POINT ( 'NONE',  ( -3.491481338843130200E-15, -1.224646799147353059E-15, -0.9999999999999991118 ) ) ;
#45 = CIRCLE ( 'NONE', #197, 2.549999999999975842 ) ;
#46 = CONICAL_SURFACE ( 'NONE', #228, 2.300000000000002043, 0.7853981633974437271 ) ;
#47 = CALENDAR_DATE ( 2021, 15, 10 ) ;
#48 = APPROVAL_DATE_TIME ( #9, #91 ) ;
#49 = PERSON_AND_ORGANIZATION ( #3, #169 ) ;
#50 = CC_DESIGN_SECURITY_CLASSIFICATION ( #76, ( #11 ) ) ;
#51 = PERSON_AND_ORGANIZATION_ROLE ( 'creator' ) ;
#52 = APPROVAL ( #127, 'UNSPECIFIED' ) ;
#53 = FACE_OUTER_BOUND ( 'NONE', #200, .T. ) ;
#54 = ORIENTED_EDGE ( 'NONE', *, *, #84, .T. ) ;
#55 = ORIENTED_EDGE ( 'NONE', *, *, #119, .T. ) ;
#56 = APPROVAL ( #66, 'UNSPECIFIED' ) ;
#57 = ORIENTED_EDGE ( 'NONE', *, *, #161, .T. ) ;
#58 = LOCAL_TIME ( 11, 33, 54.00000000000000000, #68 ) ;
#59 = DIRECTION ( 'NONE',  ( 0.0000000000000000000, 1.000000000000000000, 0.0000000000000000000 ) ) ;
#60 = ADVANCED_FACE ( 'NONE', ( #245, #202 ), #171, .T. ) ;
#61 = CARTESIAN_POINT ( 'NONE',  ( 2.304377683636468267E-13, -8.082668874372532400E-15, 66.00000000000000000 ) ) ;
#62 = CARTESIAN_POINT ( 'NONE',  ( 3.533357104877802703E-15, 2.549999999999999378, 1.011993696076446625 ) ) ;
#63 = LOCAL_TIME ( 11, 33, 54.00000000000000000, #104 ) ;
#64 = CARTESIAN_POINT ( 'NONE',  ( 1.214317059033165530E-13, -2.999999999999956923, 34.77942286340609002 ) ) ;
#65 = CARTESIAN_POINT ( 'NONE',  ( -3.491481338843130200E-15, -1.224646799147353059E-15, -0.9999999999999991118 ) ) ;
#66 = APPROVAL_STATUS ( 'not_yet_approved' ) ;
#67 = PERSON_AND_ORGANIZATION_ROLE ( 'creator' ) ;
#68 = COORDINATED_UNIVERSAL_TIME_OFFSET ( 1, 0, .AHEAD. ) ;
#69 = DIRECTION ( 'NONE',  ( -4.275831445896958607E-31, -1.000000000000000000, -1.224646799147353207E-16 ) ) ;
#70 = ORIENTED_EDGE ( 'NONE', *, *, #167, .F. ) ;
#71 = PRODUCT_RELATED_PRODUCT_CATEGORY ( 'detail', '', ( #81 ) ) ;
#72 = EDGE_LOOP ( 'NONE', ( #57 ) ) ;
#73 = EDGE_LOOP ( 'NONE', ( #173 ) ) ;
#74 = AXIS2_PLACEMENT_3D ( 'NONE', #222, #179, #92 ) ;
#75 = DIRECTION ( 'NONE',  ( 4.275831445896958607E-31, 1.000000000000000000, 1.224646799147353207E-16 ) ) ;
#76 = SECURITY_CLASSIFICATION ( '', '', #235 ) ;
#77 = FACE_OUTER_BOUND ( 'NONE', #94, .T. ) ;
#78 = DIRECTION ( 'NONE',  ( -3.491481338843133355E-15, -1.224646799147354045E-15, -1.000000000000000000 ) ) ;
#79 = CARTESIAN_POINT ( 'NONE',  ( 1.047444401652940007E-13, 3.673940397442062649E-14, 30.00000000000000000 ) ) ;
#80 = CARTESIAN_POINT ( 'NONE',  ( 2.304377683636468267E-13, -8.082668874372532400E-15, 66.00000000000000000 ) ) ;
#81 = PRODUCT ( '62414', '62414', '', ( #256 ) ) ;
#82 = PERSON_AND_ORGANIZATION_ROLE ( 'classification_officer' ) ;
#83 = APPROVAL_ROLE ( '' ) ;
#84 = EDGE_CURVE ( 'NONE', #250, #250, #141, .T. ) ;
#85 = CONICAL_SURFACE ( 'NONE', #258, 3.499999999999952482, 0.5235987755982974834 ) ;
#86 = CARTESIAN_POINT ( 'NONE',  ( 0.0000000000000000000, 0.0000000000000000000, 0.0000000000000000000 ) ) ;
#87 = PERSON_AND_ORGANIZATION ( #3, #169 ) ;
#88 = EDGE_CURVE ( 'NONE', #189, #189, #180, .T. ) ;
#89 = DATE_AND_TIME ( #47, #23 ) ;
#90 = EDGE_LOOP ( 'NONE', ( #243 ) ) ;
#91 = APPROVAL ( #212, 'UNSPECIFIED' ) ;
#92 = DIRECTION ( 'NONE',  ( -4.275831445896958607E-31, -1.000000000000000000, -1.224646799147353207E-16 ) ) ;
#93 = AXIS2_PLACEMENT_3D ( 'NONE', #134, #259, #20 ) ;
#94 = EDGE_LOOP ( 'NONE', ( #155 ) ) ;
#95 = EDGE_LOOP ( 'NONE', ( #110 ) ) ;
#96 = DIRECTION ( 'NONE',  ( -3.491481338843133355E-15, -1.224646799147354045E-15, -1.000000000000000000 ) ) ;
#97 = DIRECTION ( 'NONE',  ( 0.0000000000000000000, -1.000000000000000000, 0.0000000000000000000 ) ) ;
#98 = DIRECTION ( 'NONE',  ( -4.321598899600629065E-30, 1.000000000000000000, -1.216421949617883663E-15 ) ) ;
#99 = CC_DESIGN_DATE_AND_TIME_ASSIGNMENT ( #163, #144, ( #76 ) ) ;
#100 = FACE_BOUND ( 'NONE', #132, .T. ) ;
#101 = FACE_OUTER_BOUND ( 'NONE', #239, .T. ) ;
#102 = AXIS2_PLACEMENT_3D ( 'NONE', #86, #232, #14 ) ;
#103 = CARTESIAN_POINT ( 'NONE',  ( 2.605130325711336913E-15, 2.049999999999999822, 0.7461389802457086828 ) ) ;
#104 = COORDINATED_UNIVERSAL_TIME_OFFSET ( 1, 0, .AHEAD. ) ;
#105 = ORIENTED_EDGE ( 'NONE', *, *, #130, .F. ) ;
#106 = APPROVAL_DATE_TIME ( #89, #56 ) ;
#107 = CC_DESIGN_PERSON_AND_ORGANIZATION_ASSIGNMENT ( #87, #51, ( #11 ) ) ;
#108 = APPROVAL_ROLE ( '' ) ;
#109 = DIRECTION ( 'NONE',  ( -3.491481338843133355E-15, 1.224646799147353207E-16, -1.000000000000000000 ) ) ;
#110 = ORIENTED_EDGE ( 'NONE', *, *, #84, .F. ) ;
#111 = ORIENTED_EDGE ( 'NONE', *, *, #119, .F. ) ;
#112 = LOCAL_TIME ( 11, 33, 54.00000000000000000, #194 ) ;
#113 = ADVANCED_FACE ( 'NONE', ( #237 ), #128, .T. ) ;
#114 = CARTESIAN_POINT ( 'NONE',  ( 1.047444401652940007E-13, 3.673940397442062649E-14, 30.00000000000000000 ) ) ;
#115 = FACE_OUTER_BOUND ( 'NONE', #176, .T. ) ;
#116 = CIRCLE ( 'NONE', #152, 2.300000000000002043 ) ;
#117 = DIRECTION ( 'NONE',  ( 3.491481338843133355E-15, 1.224646799147354045E-15, 1.000000000000000000 ) ) ;
#118 = DIRECTION ( 'NONE',  ( -3.491481338843133355E-15, -1.224646799147354045E-15, -1.000000000000000000 ) ) ;
#119 = EDGE_CURVE ( 'NONE', #29, #29, #227, .T. ) ;
#120 = DIRECTION ( 'NONE',  ( -3.491481338843133355E-15, 1.224646799147353207E-16, -1.000000000000000000 ) ) ;
#121 = DIRECTION ( 'NONE',  ( -3.491481338843133355E-15, 1.224646799147353207E-16, -1.000000000000000000 ) ) ;
#122 = APPROVAL_PERSON_ORGANIZATION ( #140, #56, #108 ) ;
#123 = PERSON_AND_ORGANIZATION ( #3, #169 ) ;
#124 = SHAPE_DEFINITION_REPRESENTATION ( #142, #220 ) ;
#125 =( NAMED_UNIT ( * ) SI_UNIT ( $, .STERADIAN. ) SOLID_ANGLE_UNIT ( ) );
#126 = AXIS2_PLACEMENT_3D ( 'NONE', #44, #206, #41 ) ;
#127 = APPROVAL_STATUS ( 'not_yet_approved' ) ;
#128 = PLANE ( 'NONE',  #192 ) ;
#129 = AXIS2_PLACEMENT_3D ( 'NONE', #219, #223, #203 ) ;
#130 = EDGE_CURVE ( 'NONE', #42, #42, #116, .T. ) ;
#131 = EDGE_LOOP ( 'NONE', ( #70 ) ) ;
#132 = EDGE_LOOP ( 'NONE', ( #221 ) ) ;
#133 = DIRECTION ( 'NONE',  ( 0.0000000000000000000, -1.000000000000000000, 0.0000000000000000000 ) ) ;
#134 = CARTESIAN_POINT ( 'NONE',  ( 0.0000000000000000000, 0.0000000000000000000, 0.0000000000000000000 ) ) ;
#135 = FACE_BOUND ( 'NONE', #153, .T. ) ;
#136 = DIRECTION ( 'NONE',  ( 4.321598899600629065E-30, -1.000000000000000000, 1.216421949617883663E-15 ) ) ;
#137 = FACE_OUTER_BOUND ( 'NONE', #201, .T. ) ;
#138 = CARTESIAN_POINT ( 'NONE',  ( 2.605130325711345591E-15, 9.137567138769808511E-16, 0.7461389802457111253 ) ) ;
#139 = CC_DESIGN_PERSON_AND_ORGANIZATION_ASSIGNMENT ( #166, #33, ( #81 ) ) ;
#140 = PERSON_AND_ORGANIZATION ( #3, #169 ) ;
#141 = CIRCLE ( 'NONE', #129, 2.999999999999999556 ) ;
#142 = PRODUCT_DEFINITION_SHAPE ( 'NONE', 'NONE',  #233 ) ;
#143 = APPROVAL_PERSON_ORGANIZATION ( #123, #91, #30 ) ;
#144 = DATE_TIME_ROLE ( 'classification_date' ) ;
#145 = DATE_AND_TIME ( #32, #112 ) ;
#146 = CIRCLE ( 'NONE', #174, 2.549999999999953193 ) ;
#147 = AXIS2_PLACEMENT_3D ( 'NONE', #159, #1, #187 ) ;
#148 = PERSON_AND_ORGANIZATION_ROLE ( 'design_supplier' ) ;
#149 = EDGE_LOOP ( 'NONE', ( #55 ) ) ;
#150 = ADVANCED_FACE ( 'NONE', ( #137, #77 ), #253, .T. ) ;
#151 = CARTESIAN_POINT ( 'NONE',  ( 2.279937314264566018E-13, -7.996943598432214956E-15, 65.29999999999999716 ) ) ;
#152 = AXIS2_PLACEMENT_3D ( 'NONE', #61, #181, #248 ) ;
#153 = EDGE_LOOP ( 'NONE', ( #40 ) ) ;
#154 = ORIENTED_EDGE ( 'NONE', *, *, #88, .T. ) ;
#155 = ORIENTED_EDGE ( 'NONE', *, *, #88, .F. ) ;
#156 = AXIS2_PLACEMENT_3D ( 'NONE', #138, #117, #136 ) ;
#157 = DIRECTION ( 'NONE',  ( -3.491481338843133355E-15, -1.224646799147354045E-15, -1.000000000000000000 ) ) ;
#158 = VERTEX_POINT ( 'NONE', #252 ) ;
#159 = CARTESIAN_POINT ( 'NONE',  ( 3.533357104877813352E-15, 1.239334840657324148E-15, 1.011993696076449512 ) ) ;
#160 = DIRECTION ( 'NONE',  ( -4.229493211203381281E-30, 1.000000000000000000, -1.190496503121349405E-15 ) ) ;
#161 = EDGE_CURVE ( 'NONE', #208, #208, #146, .T. ) ;
#162 = CARTESIAN_POINT ( 'NONE',  ( 2.304377683636468267E-13, 2.299999999999994049, 66.00000000000000000 ) ) ;
#163 = DATE_AND_TIME ( #254, #175 ) ;
#164 = COORDINATED_UNIVERSAL_TIME_OFFSET ( 1, 0, .AHEAD. ) ;
#165 = AXIS2_PLACEMENT_3D ( 'NONE', #21, #96, #263 ) ;
#166 = PERSON_AND_ORGANIZATION ( #3, #169 ) ;
#167 = EDGE_CURVE ( 'NONE', #230, #230, #186, .T. ) ;
#168 = PERSON_AND_ORGANIZATION ( #3, #169 ) ;
#169 = ORGANIZATION ( 'UNSPECIFIED', 'UNSPECIFIED', '' ) ;
#170 = CC_DESIGN_PERSON_AND_ORGANIZATION_ASSIGNMENT ( #49, #67, ( #233 ) ) ;
#171 = CYLINDRICAL_SURFACE ( 'NONE', #93, 2.999999999999999556 ) ;
#172 = APPLICATION_CONTEXT ( 'configuration controlled 3d designs of mechanical parts and assemblies' ) ;
#173 = ORIENTED_EDGE ( 'NONE', *, *, #182, .F. ) ;
#174 = AXIS2_PLACEMENT_3D ( 'NONE', #224, #118, #59 ) ;
#175 = LOCAL_TIME ( 11, 33, 54.00000000000000000, #164 ) ;
#176 = EDGE_LOOP ( 'NONE', ( #111 ) ) ;
#177 = CC_DESIGN_PERSON_AND_ORGANIZATION_ASSIGNMENT ( #168, #148, ( #11 ) ) ;
#178 = ORIENTED_EDGE ( 'NONE', *, *, #167, .T. ) ;
#179 = DIRECTION ( 'NONE',  ( 3.491481338843133355E-15, -1.224646799147353207E-16, 1.000000000000000000 ) ) ;
#180 = CIRCLE ( 'NONE', #165, 2.549999999999998046 ) ;
#181 = DIRECTION ( 'NONE',  ( -3.491481338843133355E-15, 1.224646799147353207E-16, -1.000000000000000000 ) ) ;
#182 = EDGE_CURVE ( 'NONE', #6, #6, #247, .T. ) ;
#183 = FACE_OUTER_BOUND ( 'NONE', #90, .T. ) ;
#184 = DESIGN_CONTEXT ( 'detailed design', #207, 'design' ) ;
#185 = FACE_OUTER_BOUND ( 'NONE', #72, .T. ) ;
#186 = CIRCLE ( 'NONE', #19, 2.549999999999975842 ) ;
#187 = DIRECTION ( 'NONE',  ( 4.229493211203344847E-30, -1.000000000000000000, 1.190496503121339149E-15 ) ) ;
#188 = CONICAL_SURFACE ( 'NONE', #156, 2.049999999999998934, 1.221730476396032161 ) ;
#189 = VERTEX_POINT ( 'NONE', #62 ) ;
#190 = CALENDAR_DATE ( 2021, 15, 10 ) ;
#191 = APPLICATION_PROTOCOL_DEFINITION ( 'international standard', 'config_control_design', 1994, #207 ) ;
#192 = AXIS2_PLACEMENT_3D ( 'NONE', #216, #36, #69 ) ;
#193 = DATE_TIME_ROLE ( 'creation_date' ) ;
#194 = COORDINATED_UNIVERSAL_TIME_OFFSET ( 1, 0, .AHEAD. ) ;
#195 = ADVANCED_FACE ( 'NONE', ( #183 ), #188, .T. ) ;
#196 = PERSON_AND_ORGANIZATION ( #3, #169 ) ;
#197 = AXIS2_PLACEMENT_3D ( 'NONE', #114, #38, #133 ) ;
#198 = AXIS2_PLACEMENT_3D ( 'NONE', #65, #78, #160 ) ;
#199 = EDGE_LOOP ( 'NONE', ( #39 ) ) ;
#200 = EDGE_LOOP ( 'NONE', ( #105 ) ) ;
#201 = EDGE_LOOP ( 'NONE', ( #178 ) ) ;
#202 = FACE_OUTER_BOUND ( 'NONE', #149, .T. ) ;
#203 = DIRECTION ( 'NONE',  ( 8.217301096052207241E-30, -1.000000000000000000, 2.312964634635743056E-15 ) ) ;
#204 = DIRECTION ( 'NONE',  ( 3.491481338843133355E-15, 1.224646799147354045E-15, 1.000000000000000000 ) ) ;
#205 = CC_DESIGN_DATE_AND_TIME_ASSIGNMENT ( #145, #193, ( #233 ) ) ;
#206 = DIRECTION ( 'NONE',  ( -3.491481338843133355E-15, -1.224646799147354045E-15, -1.000000000000000000 ) ) ;
#207 = APPLICATION_CONTEXT ( 'configuration controlled 3d designs of mechanical parts and assemblies' ) ;
#208 = VERTEX_POINT ( 'NONE', #26 ) ;
#209 = CLOSED_SHELL ( 'NONE', ( #113, #195, #255, #150 ) ) ;
#210 = FACE_BOUND ( 'NONE', #73, .T. ) ;
#211 = CC_DESIGN_APPROVAL ( #52, ( #233 ) ) ;
#212 = APPROVAL_STATUS ( 'not_yet_approved' ) ;
#213 = AXIS2_PLACEMENT_3D ( 'NONE', #231, #157, #98 ) ;
#214 = ADVANCED_FACE ( 'NONE', ( #115, #100 ), #46, .T. ) ;
#215 =( NAMED_UNIT ( * ) PLANE_ANGLE_UNIT ( ) SI_UNIT ( $, .RADIAN. ) );
#216 = CARTESIAN_POINT ( 'NONE',  ( 1.047444401652940007E-13, 2.249639673992779569E-32, 30.00000000000000000 ) ) ;
#217 = AXIS2_PLACEMENT_3D ( 'NONE', #244, #109, #75 ) ;
#218 =( GEOMETRIC_REPRESENTATION_CONTEXT ( 3 ) GLOBAL_UNCERTAINTY_ASSIGNED_CONTEXT ( ( #226 ) ) GLOBAL_UNIT_ASSIGNED_CONTEXT ( ( #8, #215, #125 ) ) REPRESENTATION_CONTEXT ( 'NONE', 'WORKASPACE' ) );
#219 = CARTESIAN_POINT ( 'NONE',  ( 1.214317059033165278E-13, 4.259250888586256275E-14, 34.77942286340608291 ) ) ;
#220 = ADVANCED_BREP_SHAPE_REPRESENTATION ( '62414', ( #236, #238, #102 ), #218 ) ;
#221 = ORIENTED_EDGE ( 'NONE', *, *, #130, .T. ) ;
#222 = CARTESIAN_POINT ( 'NONE',  ( 1.047444401652940007E-13, 2.249639673992779569E-32, 30.00000000000000000 ) ) ;
#223 = DIRECTION ( 'NONE',  ( 3.491481338843133355E-15, 1.224646799147354045E-15, 1.000000000000000000 ) ) ;
#224 = CARTESIAN_POINT ( 'NONE',  ( 1.187103655206665341E-13, 4.163799117101004504E-14, 34.00000000000000000 ) ) ;
#225 = DIRECTION ( 'NONE',  ( 7.043400939473415180E-30, -1.000000000000000000, 1.982541115402092128E-15 ) ) ;
#226 = UNCERTAINTY_MEASURE_WITH_UNIT (LENGTH_MEASURE( 1.000000000000000082E-05 ), #8, 'distance_accuracy_value', 'NONE');
#227 = CIRCLE ( 'NONE', #240, 3.000000000000001776 ) ;
#228 = AXIS2_PLACEMENT_3D ( 'NONE', #80, #120, #24 ) ;
#229 = CARTESIAN_POINT ( 'NONE',  ( 2.279937314264566018E-13, 2.999999999999993783, 65.29999999999999716 ) ) ;
#230 = VERTEX_POINT ( 'NONE', #4 ) ;
#231 = CARTESIAN_POINT ( 'NONE',  ( 2.605130325711345591E-15, 9.137567138769808511E-16, 0.7461389802457111253 ) ) ;
#232 = DIRECTION ( 'NONE',  ( 0.0000000000000000000, 0.0000000000000000000, 1.000000000000000000 ) ) ;
#233 = PRODUCT_DEFINITION ( 'UNKNOWN', '', #11, #184 ) ;
#234 = APPLICATION_PROTOCOL_DEFINITION ( 'international standard', 'config_control_design', 1994, #172 ) ;
#235 = SECURITY_CLASSIFICATION_LEVEL ( 'unclassified' ) ;
#236 = MANIFOLD_SOLID_BREP ( 'Corps-Déplacer/Copier1[1]', #10 ) ;
#237 = FACE_OUTER_BOUND ( 'NONE', #131, .T. ) ;
#238 = MANIFOLD_SOLID_BREP ( 'Corps-Déplacer/Copier1[2]', #209 ) ;
#239 = EDGE_LOOP ( 'NONE', ( #154 ) ) ;
#240 = AXIS2_PLACEMENT_3D ( 'NONE', #151, #37, #43 ) ;
#241 = APPROVAL_PERSON_ORGANIZATION ( #13, #52, #83 ) ;
#242 = ADVANCED_FACE ( 'NONE', ( #135, #249 ), #85, .T. ) ;
#243 = ORIENTED_EDGE ( 'NONE', *, *, #182, .T. ) ;
#244 = CARTESIAN_POINT ( 'NONE',  ( 2.304377683636468267E-13, 1.724723750061125575E-32, 66.00000000000000000 ) ) ;
#245 = FACE_OUTER_BOUND ( 'NONE', #262, .T. ) ;
#246 = ADVANCED_FACE ( 'NONE', ( #185, #22 ), #2, .T. ) ;
#247 = CIRCLE ( 'NONE', #213, 2.049999999999998934 ) ;
#248 = DIRECTION ( 'NONE',  ( 0.0000000000000000000, 1.000000000000000000, 0.0000000000000000000 ) ) ;
#249 = FACE_OUTER_BOUND ( 'NONE', #95, .T. ) ;
#250 = VERTEX_POINT ( 'NONE', #64 ) ;
#251 = CC_DESIGN_PERSON_AND_ORGANIZATION_ASSIGNMENT ( #196, #82, ( #76 ) ) ;
#252 = CARTESIAN_POINT ( 'NONE',  ( 1.047444401652940007E-13, -2.549999999999938982, 30.00000000000000000 ) ) ;
#253 = CYLINDRICAL_SURFACE ( 'NONE', #126, 2.549999999999975842 ) ;
#254 = CALENDAR_DATE ( 2021, 15, 10 ) ;
#255 = ADVANCED_FACE ( 'NONE', ( #210, #101 ), #5, .T. ) ;
#256 = MECHANICAL_CONTEXT ( 'NONE', #172, 'mechanical' ) ;
#257 = APPROVAL_DATE_TIME ( #12, #52 ) ;
#258 = AXIS2_PLACEMENT_3D ( 'NONE', #27, #204, #225 ) ;
#259 = DIRECTION ( 'NONE',  ( -3.491481338843133355E-15, 1.224646799147353207E-16, -1.000000000000000000 ) ) ;
#260 = EDGE_LOOP ( 'NONE', ( #16 ) ) ;
#261 = PLANE ( 'NONE',  #74 ) ;
#262 = EDGE_LOOP ( 'NONE', ( #54 ) ) ;
#263 = DIRECTION ( 'NONE',  ( -4.229493211203344847E-30, 1.000000000000000000, -1.190496503121339149E-15 ) ) ;
ENDSEC;
END-ISO-10303-21;
