ISO-10303-21;
HEADER;
FILE_DESCRIPTION (( 'STEP AP203' ),
    '1' );
FILE_NAME ('624.step',
    '2021-12-06T12:59:54',
    ( '' ),
    ( '' ),
    'SwSTEP 2.0',
    'SolidWorks 2019',
    '' );
FILE_SCHEMA (( 'CONFIG_CONTROL_DESIGN' ));
ENDSEC;

DATA;
#1 = FACE_BOUND ( 'NONE', #91, .T. ) ;
#2 = APPROVAL ( #35, 'UNSPECIFIED' ) ;
#3 = DIRECTION ( 'NONE',  ( 4.275831445896958607E-31, 1.000000000000000000, 1.224646799147353207E-16 ) ) ;
#4 = APPROVAL_ROLE ( '' ) ;
#5 = CALENDAR_DATE ( 2021, 6, 12 ) ;
#6 = APPROVAL_PERSON_ORGANIZATION ( #60, #40, #84 ) ;
#7 = DIRECTION ( 'NONE',  ( 1.000000000000000000, 0.0000000000000000000, 0.0000000000000000000 ) ) ;
#8 = ADVANCED_FACE ( 'NONE', ( #105, #1 ), #101, .T. ) ;
#9 = APPLICATION_CONTEXT ( 'configuration controlled 3d designs of mechanical parts and assemblies' ) ;
#10 = ORIENTED_EDGE ( 'NONE', *, *, #12, .F. ) ;
#11 = ORIENTED_EDGE ( 'NONE', *, *, #97, .F. ) ;
#12 = EDGE_CURVE ( 'NONE', #16, #16, #150, .T. ) ;
#13 = CYLINDRICAL_SURFACE ( 'NONE', #133, 10.00000000000000000 ) ;
#14 = CARTESIAN_POINT ( 'NONE',  ( 0.0000000000000000000, 0.0000000000000000000, 0.0000000000000000000 ) ) ;
#15 = CC_DESIGN_PERSON_AND_ORGANIZATION_ASSIGNMENT ( #160, #32, ( #50 ) ) ;
#16 = VERTEX_POINT ( 'NONE', #54 ) ;
#17 = CARTESIAN_POINT ( 'NONE',  ( 5.237222008264699244E-15, -1.836970198721029688E-16, 1.499999999999999778 ) ) ;
#18 = AXIS2_PLACEMENT_3D ( 'NONE', #92, #144, #156 ) ;
#19 = APPLICATION_PROTOCOL_DEFINITION ( 'international standard', 'config_control_design', 1994, #9 ) ;
#20 = APPROVAL ( #159, 'UNSPECIFIED' ) ;
#21 = CALENDAR_DATE ( 2021, 6, 12 ) ;
#22 = COORDINATED_UNIVERSAL_TIME_OFFSET ( 1, 0, .AHEAD. ) ;
#23 = CC_DESIGN_PERSON_AND_ORGANIZATION_ASSIGNMENT ( #106, #24, ( #51 ) ) ;
#24 = PERSON_AND_ORGANIZATION_ROLE ( 'design_owner' ) ;
#25 = PRODUCT_DEFINITION_SHAPE ( 'NONE', 'NONE',  #72 ) ;
#26 = AXIS2_PLACEMENT_3D ( 'NONE', #17, #115, #53 ) ;
#27 = ORGANIZATION ( 'UNSPECIFIED', 'UNSPECIFIED', '' ) ;
#28 = VERTEX_POINT ( 'NONE', #168 ) ;
#29 = DIRECTION ( 'NONE',  ( -3.491481338843133355E-15, 1.224646799147353207E-16, -1.000000000000000000 ) ) ;
#30 = FACE_BOUND ( 'NONE', #122, .T. ) ;
#31 = DIRECTION ( 'NONE',  ( 4.275831445896958607E-31, 1.000000000000000000, 1.224646799147353207E-16 ) ) ;
#32 = PERSON_AND_ORGANIZATION_ROLE ( 'design_supplier' ) ;
#33 = DATE_TIME_ROLE ( 'classification_date' ) ;
#34 = SECURITY_CLASSIFICATION_LEVEL ( 'unclassified' ) ;
#35 = APPROVAL_STATUS ( 'not_yet_approved' ) ;
#36 = PERSON_AND_ORGANIZATION ( #164, #27 ) ;
#37 = EDGE_CURVE ( 'NONE', #90, #90, #49, .T. ) ;
#38 = APPROVAL_PERSON_ORGANIZATION ( #151, #20, #4 ) ;
#39 = EDGE_LOOP ( 'NONE', ( #157 ) ) ;
#40 = APPROVAL ( #57, 'UNSPECIFIED' ) ;
#41 = CYLINDRICAL_SURFACE ( 'NONE', #87, 2.500000000000000000 ) ;
#42 = ORIENTED_EDGE ( 'NONE', *, *, #132, .F. ) ;
#43 = AXIS2_PLACEMENT_3D ( 'NONE', #127, #29, #104 ) ;
#44 = DIRECTION ( 'NONE',  ( -3.491481338843133355E-15, 1.224646799147353207E-16, -1.000000000000000000 ) ) ;
#45 = DIRECTION ( 'NONE',  ( -3.491481338843133355E-15, 1.224646799147353207E-16, -1.000000000000000000 ) ) ;
#46 = DATE_AND_TIME ( #70, #73 ) ;
#47 = PERSON_AND_ORGANIZATION_ROLE ( 'classification_officer' ) ;
#48 = CC_DESIGN_PERSON_AND_ORGANIZATION_ASSIGNMENT ( #36, #163, ( #72 ) ) ;
#49 = CIRCLE ( 'NONE', #43, 10.00000000000000000 ) ;
#50 = PRODUCT_DEFINITION_FORMATION_WITH_SPECIFIED_SOURCE ( 'ANY', '', #51, .NOT_KNOWN. ) ;
#51 = PRODUCT ( '624', '624', '', ( #120 ) ) ;
#52 = ADVANCED_FACE ( 'NONE', ( #75, #76 ), #13, .T. ) ;
#53 = DIRECTION ( 'NONE',  ( 3.081487911019577365E-31, 1.000000000000000000, 8.673617379884035472E-17 ) ) ;
#54 = CARTESIAN_POINT ( 'NONE',  ( 5.237222008264700033E-15, 2.500000000000000000, 1.500000000000000000 ) ) ;
#55 = CARTESIAN_POINT ( 'NONE',  ( -1.603436792211359872E-30, 2.500000000000000000, -4.592425496802574958E-16 ) ) ;
#56 = DIRECTION ( 'NONE',  ( -4.275831445896958607E-31, -1.000000000000000000, -1.224646799147353207E-16 ) ) ;
#57 = APPROVAL_STATUS ( 'not_yet_approved' ) ;
#58 = DATE_AND_TIME ( #21, #111 ) ;
#59 = CC_DESIGN_APPROVAL ( #20, ( #72 ) ) ;
#60 = PERSON_AND_ORGANIZATION ( #164, #27 ) ;
#61 = DIRECTION ( 'NONE',  ( 3.491481338843133355E-15, -1.224646799147353207E-16, 1.000000000000000000 ) ) ;
#62 = CARTESIAN_POINT ( 'NONE',  ( -1.068957861474239564E-30, 3.749399456654644020E-32, -3.061616997868383141E-16 ) ) ;
#63 = DIRECTION ( 'NONE',  ( 4.275831445896958607E-31, 1.000000000000000000, 1.224646799147353207E-16 ) ) ;
#64 = FACE_OUTER_BOUND ( 'NONE', #74, .T. ) ;
#65 = LOCAL_TIME ( 13, 59, 54.00000000000000000, #162 ) ;
#66 = COORDINATED_UNIVERSAL_TIME_OFFSET ( 1, 0, .AHEAD. ) ;
#67 = AXIS2_PLACEMENT_3D ( 'NONE', #55, #124, #3 ) ;
#68 = APPROVAL_DATE_TIME ( #58, #2 ) ;
#69 = LOCAL_TIME ( 13, 59, 54.00000000000000000, #135 ) ;
#70 = CALENDAR_DATE ( 2021, 6, 12 ) ;
#71 = APPROVAL_PERSON_ORGANIZATION ( #81, #2, #131 ) ;
#72 = PRODUCT_DEFINITION ( 'UNKNOWN', '', #50, #98 ) ;
#73 = LOCAL_TIME ( 13, 59, 54.00000000000000000, #22 ) ;
#74 = EDGE_LOOP ( 'NONE', ( #129 ) ) ;
#75 = FACE_OUTER_BOUND ( 'NONE', #112, .T. ) ;
#76 = FACE_OUTER_BOUND ( 'NONE', #39, .T. ) ;
#77 = CARTESIAN_POINT ( 'NONE',  ( 0.0000000000000000000, 0.0000000000000000000, 0.0000000000000000000 ) ) ;
#78 = FACE_OUTER_BOUND ( 'NONE', #142, .T. ) ;
#79 = PERSON_AND_ORGANIZATION ( #164, #27 ) ;
#80 = AXIS2_PLACEMENT_3D ( 'NONE', #62, #158, #63 ) ;
#81 = PERSON_AND_ORGANIZATION ( #164, #27 ) ;
#82 = APPROVAL_DATE_TIME ( #46, #20 ) ;
#83 = CC_DESIGN_PERSON_AND_ORGANIZATION_ASSIGNMENT ( #147, #110, ( #50 ) ) ;
#84 = APPROVAL_ROLE ( '' ) ;
#85 = CIRCLE ( 'NONE', #80, 2.500000000000000000 ) ;
#86 = CIRCLE ( 'NONE', #18, 10.00000000000000000 ) ;
#87 = AXIS2_PLACEMENT_3D ( 'NONE', #77, #45, #128 ) ;
#88 = PRODUCT_RELATED_PRODUCT_CATEGORY ( 'detail', '', ( #51 ) ) ;
#89 = EDGE_LOOP ( 'NONE', ( #10 ) ) ;
#90 = VERTEX_POINT ( 'NONE', #138 ) ;
#91 = EDGE_LOOP ( 'NONE', ( #11 ) ) ;
#92 = CARTESIAN_POINT ( 'NONE',  ( 5.237222008264695300E-15, -1.836970198721028208E-16, 1.499999999999998668 ) ) ;
#93 = ORIENTED_EDGE ( 'NONE', *, *, #12, .T. ) ;
#94 = APPROVAL_DATE_TIME ( #107, #40 ) ;
#95 = CALENDAR_DATE ( 2021, 6, 12 ) ;
#96 = SHAPE_DEFINITION_REPRESENTATION ( #25, #108 ) ;
#97 = EDGE_CURVE ( 'NONE', #28, #28, #85, .T. ) ;
#98 = DESIGN_CONTEXT ( 'detailed design', #9, 'design' ) ;
#99 = LOCAL_TIME ( 13, 59, 54.00000000000000000, #66 ) ;
#100 = CC_DESIGN_APPROVAL ( #2, ( #126 ) ) ;
#101 = PLANE ( 'NONE',  #67 ) ;
#102 = VERTEX_POINT ( 'NONE', #155 ) ;
#103 =( NAMED_UNIT ( * ) SI_UNIT ( $, .STERADIAN. ) SOLID_ANGLE_UNIT ( ) );
#104 = DIRECTION ( 'NONE',  ( 4.275831445896958607E-31, 1.000000000000000000, 1.224646799147353207E-16 ) ) ;
#105 = FACE_OUTER_BOUND ( 'NONE', #118, .T. ) ;
#106 = PERSON_AND_ORGANIZATION ( #164, #27 ) ;
#107 = DATE_AND_TIME ( #5, #69 ) ;
#108 = ADVANCED_BREP_SHAPE_REPRESENTATION ( '624', ( #139, #137 ), #117 ) ;
#109 = CARTESIAN_POINT ( 'NONE',  ( 0.0000000000000000000, 0.0000000000000000000, 0.0000000000000000000 ) ) ;
#110 = PERSON_AND_ORGANIZATION_ROLE ( 'creator' ) ;
#111 = LOCAL_TIME ( 13, 59, 54.00000000000000000, #130 ) ;
#112 = EDGE_LOOP ( 'NONE', ( #113 ) ) ;
#113 = ORIENTED_EDGE ( 'NONE', *, *, #132, .T. ) ;
#114 =( NAMED_UNIT ( * ) PLANE_ANGLE_UNIT ( ) SI_UNIT ( $, .RADIAN. ) );
#115 = DIRECTION ( 'NONE',  ( -3.491481338843133355E-15, 1.224646799147353207E-16, -1.000000000000000000 ) ) ;
#116 = PLANE ( 'NONE',  #123 ) ;
#117 =( GEOMETRIC_REPRESENTATION_CONTEXT ( 3 ) GLOBAL_UNCERTAINTY_ASSIGNED_CONTEXT ( ( #136 ) ) GLOBAL_UNIT_ASSIGNED_CONTEXT ( ( #125, #114, #103 ) ) REPRESENTATION_CONTEXT ( 'NONE', 'WORKASPACE' ) );
#118 = EDGE_LOOP ( 'NONE', ( #166 ) ) ;
#119 = DATE_AND_TIME ( #121, #99 ) ;
#120 = MECHANICAL_CONTEXT ( 'NONE', #169, 'mechanical' ) ;
#121 = CALENDAR_DATE ( 2021, 6, 12 ) ;
#122 = EDGE_LOOP ( 'NONE', ( #93 ) ) ;
#123 = AXIS2_PLACEMENT_3D ( 'NONE', #146, #61, #56 ) ;
#124 = DIRECTION ( 'NONE',  ( -3.491481338843133355E-15, 1.224646799147353207E-16, -1.000000000000000000 ) ) ;
#125 =( LENGTH_UNIT ( ) NAMED_UNIT ( * ) SI_UNIT ( .MILLI., .METRE. ) );
#126 = SECURITY_CLASSIFICATION ( '', '', #34 ) ;
#127 = CARTESIAN_POINT ( 'NONE',  ( -4.275831445896958256E-30, 1.499759782661857608E-31, -1.224646799147353256E-15 ) ) ;
#128 = DIRECTION ( 'NONE',  ( 4.275831445896958607E-31, 1.000000000000000000, 1.224646799147353207E-16 ) ) ;
#129 = ORIENTED_EDGE ( 'NONE', *, *, #97, .T. ) ;
#130 = COORDINATED_UNIVERSAL_TIME_OFFSET ( 1, 0, .AHEAD. ) ;
#131 = APPROVAL_ROLE ( '' ) ;
#132 = EDGE_CURVE ( 'NONE', #102, #102, #86, .T. ) ;
#133 = AXIS2_PLACEMENT_3D ( 'NONE', #14, #44, #31 ) ;
#134 = DATE_TIME_ROLE ( 'creation_date' ) ;
#135 = COORDINATED_UNIVERSAL_TIME_OFFSET ( 1, 0, .AHEAD. ) ;
#136 = UNCERTAINTY_MEASURE_WITH_UNIT (LENGTH_MEASURE( 1.000000000000000082E-05 ), #125, 'distance_accuracy_value', 'NONE');
#137 = AXIS2_PLACEMENT_3D ( 'NONE', #109, #161, #7 ) ;
#138 = CARTESIAN_POINT ( 'NONE',  ( 0.0000000000000000000, 10.00000000000000000, 0.0000000000000000000 ) ) ;
#139 = MANIFOLD_SOLID_BREP ( 'Corps-Déplacer/Copier1', #141 ) ;
#140 = ADVANCED_FACE ( 'NONE', ( #30, #78 ), #116, .T. ) ;
#141 = CLOSED_SHELL ( 'NONE', ( #8, #52, #140, #167 ) ) ;
#142 = EDGE_LOOP ( 'NONE', ( #42 ) ) ;
#143 = CC_DESIGN_APPROVAL ( #40, ( #50 ) ) ;
#144 = DIRECTION ( 'NONE',  ( -3.491481338843133355E-15, 1.224646799147353207E-16, -1.000000000000000000 ) ) ;
#145 = CC_DESIGN_PERSON_AND_ORGANIZATION_ASSIGNMENT ( #79, #47, ( #126 ) ) ;
#146 = CARTESIAN_POINT ( 'NONE',  ( 5.237222008264698455E-15, 2.500000000000000000, 1.499999999999999556 ) ) ;
#147 = PERSON_AND_ORGANIZATION ( #164, #27 ) ;
#148 = DATE_AND_TIME ( #95, #65 ) ;
#149 = APPLICATION_PROTOCOL_DEFINITION ( 'international standard', 'config_control_design', 1994, #169 ) ;
#150 = CIRCLE ( 'NONE', #26, 2.500000000000000000 ) ;
#151 = PERSON_AND_ORGANIZATION ( #164, #27 ) ;
#152 = CC_DESIGN_DATE_AND_TIME_ASSIGNMENT ( #148, #33, ( #126 ) ) ;
#153 = FACE_OUTER_BOUND ( 'NONE', #89, .T. ) ;
#154 = CC_DESIGN_DATE_AND_TIME_ASSIGNMENT ( #119, #134, ( #72 ) ) ;
#155 = CARTESIAN_POINT ( 'NONE',  ( 5.237222008264700033E-15, 10.00000000000000000, 1.500000000000000000 ) ) ;
#156 = DIRECTION ( 'NONE',  ( 4.622231866529366047E-31, 1.000000000000000000, 1.301042606982605321E-16 ) ) ;
#157 = ORIENTED_EDGE ( 'NONE', *, *, #37, .F. ) ;
#158 = DIRECTION ( 'NONE',  ( -3.491481338843133355E-15, 1.224646799147353207E-16, -1.000000000000000000 ) ) ;
#159 = APPROVAL_STATUS ( 'not_yet_approved' ) ;
#160 = PERSON_AND_ORGANIZATION ( #164, #27 ) ;
#161 = DIRECTION ( 'NONE',  ( 0.0000000000000000000, 0.0000000000000000000, 1.000000000000000000 ) ) ;
#162 = COORDINATED_UNIVERSAL_TIME_OFFSET ( 1, 0, .AHEAD. ) ;
#163 = PERSON_AND_ORGANIZATION_ROLE ( 'creator' ) ;
#164 = PERSON ( 'UNSPECIFIED', 'UNSPECIFIED', 'UNSPECIFIED', ('UNSPECIFIED'), ('UNSPECIFIED'), ('UNSPECIFIED') ) ;
#165 = CC_DESIGN_SECURITY_CLASSIFICATION ( #126, ( #50 ) ) ;
#166 = ORIENTED_EDGE ( 'NONE', *, *, #37, .T. ) ;
#167 = ADVANCED_FACE ( 'NONE', ( #64, #153 ), #41, .F. ) ;
#168 = CARTESIAN_POINT ( 'NONE',  ( 0.0000000000000000000, 2.500000000000000000, 0.0000000000000000000 ) ) ;
#169 = APPLICATION_CONTEXT ( 'configuration controlled 3d designs of mechanical parts and assemblies' ) ;
ENDSEC;
END-ISO-10303-21;
