ISO-10303-21;
HEADER;
FILE_DESCRIPTION (( 'STEP AP203' ),
    '1' );
FILE_NAME ('62354.step',
    '2021-12-16T12:11:51',
    ( '' ),
    ( '' ),
    'SwSTEP 2.0',
    'SolidWorks 2019',
    '' );
FILE_SCHEMA (( 'CONFIG_CONTROL_DESIGN' ));
ENDSEC;

DATA;
#1 = DATE_AND_TIME ( #213, #76 ) ;
#2 = PRODUCT_DEFINITION_FORMATION_WITH_SPECIFIED_SOURCE ( 'ANY', '', #114, .NOT_KNOWN. ) ;
#3 = ORIENTED_EDGE ( 'NONE', *, *, #262, .T. ) ;
#4 = EDGE_LOOP ( 'NONE', ( #196 ) ) ;
#5 = LOCAL_TIME ( 13, 11, 51.00000000000000000, #163 ) ;
#6 = ORIENTED_EDGE ( 'NONE', *, *, #108, .T. ) ;
#7 = DIRECTION ( 'NONE',  ( -4.275831445896958607E-31, -1.000000000000000000, -1.224646799147353207E-16 ) ) ;
#8 = DIRECTION ( 'NONE',  ( -3.491481338843133355E-15, 1.224646799147353207E-16, -1.000000000000000000 ) ) ;
#9 = EDGE_CURVE ( 'NONE', #169, #169, #199, .T. ) ;
#10 = CARTESIAN_POINT ( 'NONE',  ( 4.694851889186536387E-14, -1.646732369610271361E-15, 13.44659023937996345 ) ) ;
#11 = TOROIDAL_SURFACE ( 'NONE', #150, 1.514000000000001345, 0.5000000000000004441 ) ;
#12 = DIRECTION ( 'NONE',  ( 4.275831445896958607E-31, 1.000000000000000000, 1.224646799147353207E-16 ) ) ;
#13 = CARTESIAN_POINT ( 'NONE',  ( 0.0000000000000000000, 0.0000000000000000000, 0.0000000000000000000 ) ) ;
#14 = DIRECTION ( 'NONE',  ( 4.275831445896958607E-31, 1.000000000000000000, 1.224646799147353207E-16 ) ) ;
#15 = CC_DESIGN_APPROVAL ( #249, ( #111 ) ) ;
#16 = DIRECTION ( 'NONE',  ( -3.491481338843133355E-15, 1.224646799147353207E-16, -1.000000000000000000 ) ) ;
#17 = CC_DESIGN_PERSON_AND_ORGANIZATION_ASSIGNMENT ( #143, #21, ( #103 ) ) ;
#18 = VERTEX_POINT ( 'NONE', #85 ) ;
#19 = CALENDAR_DATE ( 2021, 16, 12 ) ;
#20 = CONICAL_SURFACE ( 'NONE', #46, 1.249999999999998002, 0.2617993877991443563 ) ;
#21 = PERSON_AND_ORGANIZATION_ROLE ( 'creator' ) ;
#22 = EDGE_CURVE ( 'NONE', #18, #18, #275, .T. ) ;
#23 = APPROVAL_DATE_TIME ( #1, #31 ) ;
#24 = DIRECTION ( 'NONE',  ( 3.491481338843133355E-15, -1.224646799147353207E-16, 1.000000000000000000 ) ) ;
#25 = ORIENTED_EDGE ( 'NONE', *, *, #201, .F. ) ;
#26 = CIRCLE ( 'NONE', #273, 1.014000000000001123 ) ;
#27 = AXIS2_PLACEMENT_3D ( 'NONE', #240, #127, #174 ) ;
#28 = ADVANCED_FACE ( 'NONE', ( #244 ), #130, .T. ) ;
#29 = FACE_BOUND ( 'NONE', #263, .T. ) ;
#30 = FACE_OUTER_BOUND ( 'NONE', #47, .T. ) ;
#31 = APPROVAL ( #106, 'UNSPECIFIED' ) ;
#32 = FACE_OUTER_BOUND ( 'NONE', #242, .T. ) ;
#33 = DIRECTION ( 'NONE',  ( 3.491481338843133355E-15, -1.224646799147353207E-16, 1.000000000000000000 ) ) ;
#34 = CARTESIAN_POINT ( 'NONE',  ( 0.0000000000000000000, 0.0000000000000000000, 0.0000000000000000000 ) ) ;
#35 = AXIS2_PLACEMENT_3D ( 'NONE', #138, #271, #135 ) ;
#36 = VERTEX_POINT ( 'NONE', #123 ) ;
#37 = DATE_TIME_ROLE ( 'classification_date' ) ;
#38 = CLOSED_SHELL ( 'NONE', ( #88, #48, #120, #148, #57, #209, #274 ) ) ;
#39 = VERTEX_POINT ( 'NONE', #260 ) ;
#40 = ADVANCED_FACE ( 'NONE', ( #91 ), #131, .F. ) ;
#41 =( NAMED_UNIT ( * ) SI_UNIT ( $, .STERADIAN. ) SOLID_ANGLE_UNIT ( ) );
#42 = EDGE_LOOP ( 'NONE', ( #149 ) ) ;
#43 = ORIENTED_EDGE ( 'NONE', *, *, #22, .F. ) ;
#44 = EDGE_LOOP ( 'NONE', ( #153 ) ) ;
#45 = EDGE_LOOP ( 'NONE', ( #215 ) ) ;
#46 = AXIS2_PLACEMENT_3D ( 'NONE', #118, #254, #178 ) ;
#47 = EDGE_LOOP ( 'NONE', ( #67 ) ) ;
#48 = ADVANCED_FACE ( 'NONE', ( #89, #270 ), #227, .T. ) ;
#49 = FACE_OUTER_BOUND ( 'NONE', #200, .T. ) ;
#50 = FACE_BOUND ( 'NONE', #217, .T. ) ;
#51 = PRODUCT_RELATED_PRODUCT_CATEGORY ( 'detail', '', ( #114 ) ) ;
#52 = CARTESIAN_POINT ( 'NONE',  ( 4.364351673553916694E-14, -1.517883041479706208E-15, 12.50000000000000000 ) ) ;
#53 = AXIS2_PLACEMENT_3D ( 'NONE', #34, #277, #224 ) ;
#54 = FACE_OUTER_BOUND ( 'NONE', #264, .T. ) ;
#55 = SECURITY_CLASSIFICATION_LEVEL ( 'unclassified' ) ;
#56 = DIRECTION ( 'NONE',  ( 4.275831445896957731E-31, 1.000000000000000000, 1.224646799147352961E-16 ) ) ;
#57 = ADVANCED_FACE ( 'NONE', ( #268, #119 ), #72, .T. ) ;
#58 = COORDINATED_UNIVERSAL_TIME_OFFSET ( 1, 0, .AHEAD. ) ;
#59 = DATE_AND_TIME ( #19, #5 ) ;
#60 = DATE_AND_TIME ( #257, #146 ) ;
#61 = APPROVAL_ROLE ( '' ) ;
#62 = DIRECTION ( 'NONE',  ( 4.275831445896958607E-31, 1.000000000000000000, 1.224646799147353207E-16 ) ) ;
#63 = CARTESIAN_POINT ( 'NONE',  ( 4.694851889186536387E-14, 1.249999999999996447, 13.44659023937996345 ) ) ;
#64 = EDGE_LOOP ( 'NONE', ( #266 ) ) ;
#65 = CC_DESIGN_DATE_AND_TIME_ASSIGNMENT ( #60, #37, ( #111 ) ) ;
#66 = AXIS2_PLACEMENT_3D ( 'NONE', #225, #222, #253 ) ;
#67 = ORIENTED_EDGE ( 'NONE', *, *, #177, .F. ) ;
#68 = ORIENTED_EDGE ( 'NONE', *, *, #201, .T. ) ;
#69 = ORIENTED_EDGE ( 'NONE', *, *, #9, .F. ) ;
#70 = CONICAL_SURFACE ( 'NONE', #81, 1.000000000000001554, 0.7853981633974479459 ) ;
#71 = FACE_OUTER_BOUND ( 'NONE', #238, .T. ) ;
#72 = CYLINDRICAL_SURFACE ( 'NONE', #252, 1.249999999999999778 ) ;
#73 = CC_DESIGN_PERSON_AND_ORGANIZATION_ASSIGNMENT ( #79, #226, ( #111 ) ) ;
#74 = DIRECTION ( 'NONE',  ( -3.491481338843133355E-15, 1.224646799147353207E-16, -1.000000000000000000 ) ) ;
#75 = FACE_BOUND ( 'NONE', #110, .T. ) ;
#76 = LOCAL_TIME ( 13, 11, 51.00000000000000000, #125 ) ;
#77 = FACE_OUTER_BOUND ( 'NONE', #151, .T. ) ;
#78 = EDGE_CURVE ( 'NONE', #147, #147, #26, .T. ) ;
#79 = PERSON_AND_ORGANIZATION ( #243, #124 ) ;
#80 = APPROVAL_ROLE ( '' ) ;
#81 = AXIS2_PLACEMENT_3D ( 'NONE', #155, #205, #95 ) ;
#82 = APPROVAL_DATE_TIME ( #59, #214 ) ;
#83 = CALENDAR_DATE ( 2021, 16, 12 ) ;
#84 = DATE_TIME_ROLE ( 'creation_date' ) ;
#85 = CARTESIAN_POINT ( 'NONE',  ( 1.492608272355439415E-13, 1.249999999999996447, 42.74999999999999289 ) ) ;
#86 = AXIS2_PLACEMENT_3D ( 'NONE', #140, #33, #203 ) ;
#87 = DIRECTION ( 'NONE',  ( 3.491481338843133355E-15, -1.224646799147353207E-16, 1.000000000000000000 ) ) ;
#88 = ADVANCED_FACE ( 'NONE', ( #54 ), #115, .F. ) ;
#89 = FACE_OUTER_BOUND ( 'NONE', #64, .T. ) ;
#90 =( GEOMETRIC_REPRESENTATION_CONTEXT ( 3 ) GLOBAL_UNCERTAINTY_ASSIGNED_CONTEXT ( ( #156 ) ) GLOBAL_UNIT_ASSIGNED_CONTEXT ( ( #259, #233, #41 ) ) REPRESENTATION_CONTEXT ( 'NONE', 'WORKASPACE' ) );
#91 = FACE_OUTER_BOUND ( 'NONE', #113, .T. ) ;
#92 = CARTESIAN_POINT ( 'NONE',  ( 3.840629472727446691E-14, -1.347111479062088405E-15, 11.00000000000000000 ) ) ;
#93 = CC_DESIGN_PERSON_AND_ORGANIZATION_ASSIGNMENT ( #182, #282, ( #2 ) ) ;
#94 = DIRECTION ( 'NONE',  ( -3.491481338843133355E-15, 1.224646799147353207E-16, -1.000000000000000000 ) ) ;
#95 = DIRECTION ( 'NONE',  ( 0.0000000000000000000, 1.000000000000000000, 0.0000000000000000000 ) ) ;
#96 = DIRECTION ( 'NONE',  ( 0.0000000000000000000, 1.000000000000000000, 0.0000000000000000000 ) ) ;
#97 = DIRECTION ( 'NONE',  ( 0.0000000000000000000, 1.000000000000000000, 0.0000000000000000000 ) ) ;
#98 = AXIS2_PLACEMENT_3D ( 'NONE', #230, #190, #232 ) ;
#99 = PERSON_AND_ORGANIZATION_ROLE ( 'creator' ) ;
#100 = CARTESIAN_POINT ( 'NONE',  ( 4.364351673553916694E-14, 1.013999999999999790, 12.50000000000000000 ) ) ;
#101 = APPROVAL_STATUS ( 'not_yet_approved' ) ;
#102 = VERTEX_POINT ( 'NONE', #187 ) ;
#103 = PRODUCT_DEFINITION ( 'UNKNOWN', '', #2, #132 ) ;
#104 = AXIS2_PLACEMENT_3D ( 'NONE', #166, #16, #62 ) ;
#105 = COORDINATED_UNIVERSAL_TIME_OFFSET ( 1, 0, .AHEAD. ) ;
#106 = APPROVAL_STATUS ( 'not_yet_approved' ) ;
#107 = LOCAL_TIME ( 13, 11, 51.00000000000000000, #58 ) ;
#108 = EDGE_CURVE ( 'NONE', #39, #39, #188, .T. ) ;
#109 = EDGE_LOOP ( 'NONE', ( #267 ) ) ;
#110 = EDGE_LOOP ( 'NONE', ( #25 ) ) ;
#111 = SECURITY_CLASSIFICATION ( '', '', #55 ) ;
#112 = ORIENTED_EDGE ( 'NONE', *, *, #219, .T. ) ;
#113 = EDGE_LOOP ( 'NONE', ( #68 ) ) ;
#114 = PRODUCT ( '62354', '62354', '', ( #211 ) ) ;
#115 = PLANE ( 'NONE',  #136 ) ;
#116 = AXIS2_PLACEMENT_3D ( 'NONE', #13, #221, #56 ) ;
#117 = DIRECTION ( 'NONE',  ( -3.491481338843133355E-15, 1.224646799147353207E-16, -1.000000000000000000 ) ) ;
#118 = CARTESIAN_POINT ( 'NONE',  ( 4.694851889186536387E-14, -1.646732369610271361E-15, 13.44659023937996345 ) ) ;
#119 = FACE_OUTER_BOUND ( 'NONE', #128, .T. ) ;
#120 = ADVANCED_FACE ( 'NONE', ( #77, #71 ), #11, .F. ) ;
#121 = CARTESIAN_POINT ( 'NONE',  ( 0.0000000000000000000, 0.0000000000000000000, 0.0000000000000000000 ) ) ;
#122 = APPLICATION_PROTOCOL_DEFINITION ( 'international standard', 'config_control_design', 1994, #139 ) ;
#123 = CARTESIAN_POINT ( 'NONE',  ( 2.839103739574742144E-31, 0.6950000000000001732, 8.131516293641283255E-17 ) ) ;
#124 = ORGANIZATION ( 'UNSPECIFIED', 'UNSPECIFIED', '' ) ;
#125 = COORDINATED_UNIVERSAL_TIME_OFFSET ( 1, 0, .AHEAD. ) ;
#126 = EDGE_CURVE ( 'NONE', #231, #231, #154, .T. ) ;
#127 = DIRECTION ( 'NONE',  ( -3.491481338843133355E-15, 1.224646799147353207E-16, -1.000000000000000000 ) ) ;
#128 = EDGE_LOOP ( 'NONE', ( #202 ) ) ;
#129 = ORIENTED_EDGE ( 'NONE', *, *, #78, .T. ) ;
#130 = PLANE ( 'NONE',  #184 ) ;
#131 = PLANE ( 'NONE',  #247 ) ;
#132 = DESIGN_CONTEXT ( 'detailed design', #139, 'design' ) ;
#133 = FACE_OUTER_BOUND ( 'NONE', #45, .T. ) ;
#134 = ADVANCED_FACE ( 'NONE', ( #30, #133 ), #206, .T. ) ;
#135 = DIRECTION ( 'NONE',  ( 7.597356782592645916E-31, 1.000000000000000000, 2.138465823442809409E-16 ) ) ;
#136 = AXIS2_PLACEMENT_3D ( 'NONE', #208, #248, #185 ) ;
#137 = DIRECTION ( 'NONE',  ( -3.491481338843133355E-15, 1.224646799147353207E-16, -1.000000000000000000 ) ) ;
#138 = CARTESIAN_POINT ( 'NONE',  ( 4.156693054327044402E-15, -1.457971660162539712E-16, 1.190524207614502616 ) ) ;
#139 = APPLICATION_CONTEXT ( 'configuration controlled 3d designs of mechanical parts and assemblies' ) ;
#140 = CARTESIAN_POINT ( 'NONE',  ( 4.156693054327044402E-15, -1.457971660162539712E-16, 1.190524207614502616 ) ) ;
#141 = APPLICATION_PROTOCOL_DEFINITION ( 'international standard', 'config_control_design', 1994, #216 ) ;
#142 = SHAPE_DEFINITION_REPRESENTATION ( #191, #175 ) ;
#143 = PERSON_AND_ORGANIZATION ( #243, #124 ) ;
#144 = APPROVAL_DATE_TIME ( #162, #249 ) ;
#145 = PLANE ( 'NONE',  #104 ) ;
#146 = LOCAL_TIME ( 13, 11, 51.00000000000000000, #276 ) ;
#147 = VERTEX_POINT ( 'NONE', #186 ) ;
#148 = ADVANCED_FACE ( 'NONE', ( #50, #32 ), #20, .T. ) ;
#149 = ORIENTED_EDGE ( 'NONE', *, *, #9, .T. ) ;
#150 = AXIS2_PLACEMENT_3D ( 'NONE', #52, #117, #12 ) ;
#151 = EDGE_LOOP ( 'NONE', ( #69 ) ) ;
#152 = ORIENTED_EDGE ( 'NONE', *, *, #108, .F. ) ;
#153 = ORIENTED_EDGE ( 'NONE', *, *, #177, .T. ) ;
#154 = CIRCLE ( 'NONE', #241, 1.014000000000001123 ) ;
#155 = CARTESIAN_POINT ( 'NONE',  ( 1.501336975702547217E-13, -5.265981236333618470E-15, 43.00000000000000000 ) ) ;
#156 = UNCERTAINTY_MEASURE_WITH_UNIT (LENGTH_MEASURE( 1.000000000000000082E-05 ), #259, 'distance_accuracy_value', 'NONE');
#157 = DIRECTION ( 'NONE',  ( 0.0000000000000000000, 1.000000000000000000, 0.0000000000000000000 ) ) ;
#158 = DIRECTION ( 'NONE',  ( -3.491481338843133355E-15, 1.224646799147353207E-16, -1.000000000000000000 ) ) ;
#159 = FACE_OUTER_BOUND ( 'NONE', #44, .T. ) ;
#160 = CARTESIAN_POINT ( 'NONE',  ( 3.840629472727446691E-14, -1.347111479062088405E-15, 11.00000000000000000 ) ) ;
#161 = CARTESIAN_POINT ( 'NONE',  ( 3.840629472727446691E-14, 1.013999999999999790, 11.00000000000000000 ) ) ;
#162 = DATE_AND_TIME ( #83, #107 ) ;
#163 = COORDINATED_UNIVERSAL_TIME_OFFSET ( 1, 0, .AHEAD. ) ;
#164 = AXIS2_PLACEMENT_3D ( 'NONE', #180, #74, #96 ) ;
#165 = APPROVAL_STATUS ( 'not_yet_approved' ) ;
#166 = CARTESIAN_POINT ( 'NONE',  ( 1.501336975702547217E-13, 7.498798913309222353E-33, 43.00000000000000000 ) ) ;
#167 = CC_DESIGN_PERSON_AND_ORGANIZATION_ASSIGNMENT ( #207, #99, ( #2 ) ) ;
#168 = PERSON_AND_ORGANIZATION ( #243, #124 ) ;
#169 = VERTEX_POINT ( 'NONE', #100 ) ;
#170 = CC_DESIGN_SECURITY_CLASSIFICATION ( #111, ( #2 ) ) ;
#171 = EDGE_LOOP ( 'NONE', ( #176 ) ) ;
#172 = DIRECTION ( 'NONE',  ( -3.491481338843133355E-15, 1.224646799147353207E-16, -1.000000000000000000 ) ) ;
#173 = CIRCLE ( 'NONE', #66, 0.6950000000000001732 ) ;
#174 = DIRECTION ( 'NONE',  ( 0.0000000000000000000, 1.000000000000000000, 0.0000000000000000000 ) ) ;
#175 = ADVANCED_BREP_SHAPE_REPRESENTATION ( '62354', ( #195, #250, #98 ), #90 ) ;
#176 = ORIENTED_EDGE ( 'NONE', *, *, #126, .F. ) ;
#177 = EDGE_CURVE ( 'NONE', #258, #258, #280, .T. ) ;
#178 = DIRECTION ( 'NONE',  ( 0.0000000000000000000, -1.000000000000000000, 0.0000000000000000000 ) ) ;
#179 = DIRECTION ( 'NONE',  ( 0.0000000000000000000, 1.000000000000000000, 0.0000000000000000000 ) ) ;
#180 = CARTESIAN_POINT ( 'NONE',  ( 1.501336975702547217E-13, -5.265981236333618470E-15, 43.00000000000000000 ) ) ;
#181 = DIRECTION ( 'NONE',  ( -3.491481338843133355E-15, 1.224646799147353207E-16, -1.000000000000000000 ) ) ;
#182 = PERSON_AND_ORGANIZATION ( #243, #124 ) ;
#183 = AXIS2_PLACEMENT_3D ( 'NONE', #251, #8, #272 ) ;
#184 = AXIS2_PLACEMENT_3D ( 'NONE', #218, #24, #7 ) ;
#185 = DIRECTION ( 'NONE',  ( -4.275831445896958607E-31, -1.000000000000000000, -1.224646799147353207E-16 ) ) ;
#186 = CARTESIAN_POINT ( 'NONE',  ( 3.840629472727446691E-14, 1.013999999999999790, 11.00000000000000000 ) ) ;
#187 = CARTESIAN_POINT ( 'NONE',  ( 1.501336975702547217E-13, 0.9999999999999963363, 43.00000000000000000 ) ) ;
#188 = CIRCLE ( 'NONE', #183, 1.031037086855465690 ) ;
#189 = CALENDAR_DATE ( 2021, 16, 12 ) ;
#190 = DIRECTION ( 'NONE',  ( 0.0000000000000000000, 0.0000000000000000000, 1.000000000000000000 ) ) ;
#191 = PRODUCT_DEFINITION_SHAPE ( 'NONE', 'NONE',  #103 ) ;
#192 = APPROVAL_ROLE ( '' ) ;
#193 = APPROVAL_PERSON_ORGANIZATION ( #210, #214, #80 ) ;
#194 = DIRECTION ( 'NONE',  ( -4.275831445896958607E-31, -1.000000000000000000, -1.224646799147353207E-16 ) ) ;
#195 = MANIFOLD_SOLID_BREP ( 'Corps-Déplacer/Copier1[1]', #38 ) ;
#196 = ORIENTED_EDGE ( 'NONE', *, *, #262, .F. ) ;
#197 = DIRECTION ( 'NONE',  ( 0.0000000000000000000, 1.000000000000000000, 0.0000000000000000000 ) ) ;
#198 = CC_DESIGN_APPROVAL ( #214, ( #103 ) ) ;
#199 = CIRCLE ( 'NONE', #235, 1.014000000000001123 ) ;
#200 = EDGE_LOOP ( 'NONE', ( #43 ) ) ;
#201 = EDGE_CURVE ( 'NONE', #36, #36, #173, .T. ) ;
#202 = ORIENTED_EDGE ( 'NONE', *, *, #22, .T. ) ;
#203 = DIRECTION ( 'NONE',  ( -7.597356782592645916E-31, -1.000000000000000000, -2.138465823442809409E-16 ) ) ;
#204 = APPROVAL_PERSON_ORGANIZATION ( #168, #31, #192 ) ;
#205 = DIRECTION ( 'NONE',  ( -3.491481338843133355E-15, 1.224646799147353207E-16, -1.000000000000000000 ) ) ;
#206 = CYLINDRICAL_SURFACE ( 'NONE', #116, 1.014000000000000679 ) ;
#207 = PERSON_AND_ORGANIZATION ( #243, #124 ) ;
#208 = CARTESIAN_POINT ( 'NONE',  ( 3.840629472727446691E-14, 7.603782098095607069E-33, 11.00000000000000000 ) ) ;
#209 = ADVANCED_FACE ( 'NONE', ( #49, #29 ), #70, .T. ) ;
#210 = PERSON_AND_ORGANIZATION ( #243, #124 ) ;
#211 = MECHANICAL_CONTEXT ( 'NONE', #216, 'mechanical' ) ;
#212 = CIRCLE ( 'NONE', #223, 1.249999999999998002 ) ;
#213 = CALENDAR_DATE ( 2021, 16, 12 ) ;
#214 = APPROVAL ( #101, 'UNSPECIFIED' ) ;
#215 = ORIENTED_EDGE ( 'NONE', *, *, #126, .T. ) ;
#216 = APPLICATION_CONTEXT ( 'configuration controlled 3d designs of mechanical parts and assemblies' ) ;
#217 = EDGE_LOOP ( 'NONE', ( #152 ) ) ;
#218 = CARTESIAN_POINT ( 'NONE',  ( 3.840629472727446691E-14, 7.603782098095607069E-33, 11.00000000000000000 ) ) ;
#219 = EDGE_CURVE ( 'NONE', #102, #102, #261, .T. ) ;
#220 = CARTESIAN_POINT ( 'NONE',  ( -6.629955766182249093E-33, 2.325475441387836701E-34, -1.898894802164120524E-18 ) ) ;
#221 = DIRECTION ( 'NONE',  ( -3.491481338843133355E-15, 1.224646799147353207E-16, -1.000000000000000000 ) ) ;
#222 = DIRECTION ( 'NONE',  ( -3.491481338843133355E-15, 1.224646799147353207E-16, -1.000000000000000000 ) ) ;
#223 = AXIS2_PLACEMENT_3D ( 'NONE', #10, #94, #179 ) ;
#224 = DIRECTION ( 'NONE',  ( 4.275831445896958607E-31, 1.000000000000000000, 1.224646799147352961E-16 ) ) ;
#225 = CARTESIAN_POINT ( 'NONE',  ( -1.325991153236449819E-32, 4.650950882775673402E-34, -3.797789604328241048E-18 ) ) ;
#226 = PERSON_AND_ORGANIZATION_ROLE ( 'classification_officer' ) ;
#227 = CYLINDRICAL_SURFACE ( 'NONE', #53, 1.014000000000001123 ) ;
#228 = ADVANCED_FACE ( 'NONE', ( #75, #159 ), #246, .T. ) ;
#229 = APPROVAL_PERSON_ORGANIZATION ( #255, #249, #61 ) ;
#230 = CARTESIAN_POINT ( 'NONE',  ( 0.0000000000000000000, 0.0000000000000000000, 0.0000000000000000000 ) ) ;
#231 = VERTEX_POINT ( 'NONE', #161 ) ;
#232 = DIRECTION ( 'NONE',  ( 1.000000000000000000, 0.0000000000000000000, 0.0000000000000000000 ) ) ;
#233 =( NAMED_UNIT ( * ) PLANE_ANGLE_UNIT ( ) SI_UNIT ( $, .RADIAN. ) );
#234 = CC_DESIGN_APPROVAL ( #31, ( #2 ) ) ;
#235 = AXIS2_PLACEMENT_3D ( 'NONE', #245, #172, #197 ) ;
#236 = FACE_OUTER_BOUND ( 'NONE', #109, .T. ) ;
#237 = CC_DESIGN_DATE_AND_TIME_ASSIGNMENT ( #283, #84, ( #103 ) ) ;
#238 = EDGE_LOOP ( 'NONE', ( #6 ) ) ;
#239 = CC_DESIGN_PERSON_AND_ORGANIZATION_ASSIGNMENT ( #279, #256, ( #114 ) ) ;
#240 = CARTESIAN_POINT ( 'NONE',  ( 1.492608272355439415E-13, -5.235365066354933894E-15, 42.74999999999999289 ) ) ;
#241 = AXIS2_PLACEMENT_3D ( 'NONE', #92, #137, #97 ) ;
#242 = EDGE_LOOP ( 'NONE', ( #3 ) ) ;
#243 = PERSON ( 'UNSPECIFIED', 'UNSPECIFIED', 'UNSPECIFIED', ('UNSPECIFIED'), ('UNSPECIFIED'), ('UNSPECIFIED') ) ;
#244 = FACE_OUTER_BOUND ( 'NONE', #171, .T. ) ;
#245 = CARTESIAN_POINT ( 'NONE',  ( 4.364351673553916694E-14, -1.530808498934191521E-15, 12.50000000000000000 ) ) ;
#246 = CONICAL_SURFACE ( 'NONE', #86, 1.014000000000000012, 0.2617993877991427465 ) ;
#247 = AXIS2_PLACEMENT_3D ( 'NONE', #220, #87, #194 ) ;
#248 = DIRECTION ( 'NONE',  ( 3.491481338843133355E-15, -1.224646799147353207E-16, 1.000000000000000000 ) ) ;
#249 = APPROVAL ( #165, 'UNSPECIFIED' ) ;
#250 = MANIFOLD_SOLID_BREP ( 'Corps-Déplacer/Copier1[2]', #269 ) ;
#251 = CARTESIAN_POINT ( 'NONE',  ( 4.409534766859548932E-14, -1.546656594691350275E-15, 12.62940952255125993 ) ) ;
#252 = AXIS2_PLACEMENT_3D ( 'NONE', #121, #181, #14 ) ;
#253 = DIRECTION ( 'NONE',  ( 4.275831445896958607E-31, 1.000000000000000000, 1.224646799147353207E-16 ) ) ;
#254 = DIRECTION ( 'NONE',  ( 3.491481338843133355E-15, -1.224646799147353207E-16, 1.000000000000000000 ) ) ;
#255 = PERSON_AND_ORGANIZATION ( #243, #124 ) ;
#256 = PERSON_AND_ORGANIZATION_ROLE ( 'design_owner' ) ;
#257 = CALENDAR_DATE ( 2021, 16, 12 ) ;
#258 = VERTEX_POINT ( 'NONE', #278 ) ;
#259 =( LENGTH_UNIT ( ) NAMED_UNIT ( * ) SI_UNIT ( .MILLI., .METRE. ) );
#260 = CARTESIAN_POINT ( 'NONE',  ( 4.409534766859548932E-14, 1.031037086855464135, 12.62940952255125993 ) ) ;
#261 = CIRCLE ( 'NONE', #164, 1.000000000000001554 ) ;
#262 = EDGE_CURVE ( 'NONE', #281, #281, #212, .T. ) ;
#263 = EDGE_LOOP ( 'NONE', ( #112 ) ) ;
#264 = EDGE_LOOP ( 'NONE', ( #129 ) ) ;
#265 = LOCAL_TIME ( 13, 11, 51.00000000000000000, #105 ) ;
#266 = ORIENTED_EDGE ( 'NONE', *, *, #78, .F. ) ;
#267 = ORIENTED_EDGE ( 'NONE', *, *, #219, .F. ) ;
#268 = FACE_OUTER_BOUND ( 'NONE', #4, .T. ) ;
#269 = CLOSED_SHELL ( 'NONE', ( #40, #228, #134, #28 ) ) ;
#270 = FACE_OUTER_BOUND ( 'NONE', #42, .T. ) ;
#271 = DIRECTION ( 'NONE',  ( -3.491481338843133355E-15, 1.224646799147353207E-16, -1.000000000000000000 ) ) ;
#272 = DIRECTION ( 'NONE',  ( 0.0000000000000000000, 1.000000000000000000, 0.0000000000000000000 ) ) ;
#273 = AXIS2_PLACEMENT_3D ( 'NONE', #160, #158, #157 ) ;
#274 = ADVANCED_FACE ( 'NONE', ( #236 ), #145, .F. ) ;
#275 = CIRCLE ( 'NONE', #27, 1.250000000000001554 ) ;
#276 = COORDINATED_UNIVERSAL_TIME_OFFSET ( 1, 0, .AHEAD. ) ;
#277 = DIRECTION ( 'NONE',  ( -3.491481338843133355E-15, 1.224646799147353207E-16, -1.000000000000000000 ) ) ;
#278 = CARTESIAN_POINT ( 'NONE',  ( 4.156693054327045191E-15, 1.013999999999999790, 1.190524207614502838 ) ) ;
#279 = PERSON_AND_ORGANIZATION ( #243, #124 ) ;
#280 = CIRCLE ( 'NONE', #35, 1.014000000000000012 ) ;
#281 = VERTEX_POINT ( 'NONE', #63 ) ;
#282 = PERSON_AND_ORGANIZATION_ROLE ( 'design_supplier' ) ;
#283 = DATE_AND_TIME ( #189, #265 ) ;
ENDSEC;
END-ISO-10303-21;
