ISO-10303-21;
HEADER;
FILE_DESCRIPTION (( 'STEP AP203' ),
    '1' );
FILE_NAME ('62351.step',
    '2021-12-16T10:16:22',
    ( '' ),
    ( '' ),
    'SwSTEP 2.0',
    'SolidWorks 2019',
    '' );
FILE_SCHEMA (( 'CONFIG_CONTROL_DESIGN' ));
ENDSEC;

DATA;
#1 = EDGE_CURVE ( 'NONE', #169, #169, #161, .T. ) ;
#2 = MECHANICAL_CONTEXT ( 'NONE', #220, 'mechanical' ) ;
#3 = AXIS2_PLACEMENT_3D ( 'NONE', #92, #277, #79 ) ;
#4 = ORIENTED_EDGE ( 'NONE', *, *, #166, .T. ) ;
#5 = FACE_OUTER_BOUND ( 'NONE', #173, .T. ) ;
#6 = APPROVAL ( #149, 'UNSPECIFIED' ) ;
#7 = CC_DESIGN_PERSON_AND_ORGANIZATION_ASSIGNMENT ( #106, #279, ( #138 ) ) ;
#8 = EDGE_LOOP ( 'NONE', ( #266 ) ) ;
#9 = FACE_OUTER_BOUND ( 'NONE', #130, .T. ) ;
#10 = CARTESIAN_POINT ( 'NONE',  ( 1.047444401652940007E-13, -3.673940397442059178E-15, 30.00000000000000000 ) ) ;
#11 = DIRECTION ( 'NONE',  ( -3.491481338843133355E-15, 1.224646799147353207E-16, -1.000000000000000000 ) ) ;
#12 = DATE_AND_TIME ( #236, #184 ) ;
#13 = EDGE_CURVE ( 'NONE', #62, #62, #268, .T. ) ;
#14 = VERTEX_POINT ( 'NONE', #44 ) ;
#15 = APPROVAL ( #260, 'UNSPECIFIED' ) ;
#16 = SECURITY_CLASSIFICATION_LEVEL ( 'unclassified' ) ;
#17 = DIRECTION ( 'NONE',  ( 0.0000000000000000000, 1.000000000000000000, 0.0000000000000000000 ) ) ;
#18 = DATE_AND_TIME ( #256, #275 ) ;
#19 = CARTESIAN_POINT ( 'NONE',  ( 1.047444401652940007E-13, 4.499279347985518085E-33, 30.00000000000000000 ) ) ;
#20 = AXIS2_PLACEMENT_3D ( 'NONE', #42, #193, #190 ) ;
#21 = VERTEX_POINT ( 'NONE', #241 ) ;
#22 = DIRECTION ( 'NONE',  ( 1.000000000000000000, 0.0000000000000000000, 0.0000000000000000000 ) ) ;
#23 = ORIENTED_EDGE ( 'NONE', *, *, #251, .F. ) ;
#24 = CLOSED_SHELL ( 'NONE', ( #265, #146, #148, #259 ) ) ;
#25 = EDGE_LOOP ( 'NONE', ( #269 ) ) ;
#26 = APPROVAL_PERSON_ORGANIZATION ( #124, #243, #144 ) ;
#27 = CIRCLE ( 'NONE', #20, 0.7380370868554646524 ) ;
#28 = ADVANCED_FACE ( 'NONE', ( #119, #117 ), #198, .F. ) ;
#29 = CARTESIAN_POINT ( 'NONE',  ( 1.047444401652940007E-13, -3.673940397442059178E-15, 30.00000000000000000 ) ) ;
#30 = DIRECTION ( 'NONE',  ( -5.342385421323821257E-31, -1.000000000000000000, -1.503747812046470730E-16 ) ) ;
#31 = AXIS2_PLACEMENT_3D ( 'NONE', #178, #93, #137 ) ;
#32 = DIRECTION ( 'NONE',  ( 0.0000000000000000000, 1.000000000000000000, 0.0000000000000000000 ) ) ;
#33 = ORIENTED_EDGE ( 'NONE', *, *, #110, .T. ) ;
#34 = PRODUCT ( '62351', '62351', '', ( #2 ) ) ;
#35 = PERSON_AND_ORGANIZATION_ROLE ( 'creator' ) ;
#36 = CARTESIAN_POINT ( 'NONE',  ( 3.140322965808198623E-15, -1.101477022254455355E-16, 0.8994242446241205169 ) ) ;
#37 = PLANE ( 'NONE',  #91 ) ;
#38 = CONICAL_SURFACE ( 'NONE', #127, 0.7209999999999993081, 0.2617993877991429130 ) ;
#39 = PERSON_AND_ORGANIZATION ( #94, #65 ) ;
#40 = FACE_OUTER_BOUND ( 'NONE', #8, .T. ) ;
#41 = PERSON_AND_ORGANIZATION ( #94, #65 ) ;
#42 = CARTESIAN_POINT ( 'NONE',  ( 2.244816336776805305E-14, -7.873755792199909958E-16, 6.429409522551257083 ) ) ;
#43 = CC_DESIGN_APPROVAL ( #6, ( #56 ) ) ;
#44 = CARTESIAN_POINT ( 'NONE',  ( 1.047444401652940007E-13, 0.5999999999999963141, 30.00000000000000000 ) ) ;
#45 = AXIS2_PLACEMENT_3D ( 'NONE', #222, #54, #32 ) ;
#46 = FACE_OUTER_BOUND ( 'NONE', #49, .T. ) ;
#47 = EDGE_LOOP ( 'NONE', ( #154 ) ) ;
#48 = CC_DESIGN_PERSON_AND_ORGANIZATION_ASSIGNMENT ( #208, #168, ( #34 ) ) ;
#49 = EDGE_LOOP ( 'NONE', ( #120 ) ) ;
#50 = EDGE_LOOP ( 'NONE', ( #96 ) ) ;
#51 = FACE_BOUND ( 'NONE', #111, .T. ) ;
#52 = ORIENTED_EDGE ( 'NONE', *, *, #242, .F. ) ;
#53 = AXIS2_PLACEMENT_3D ( 'NONE', #128, #165, #213 ) ;
#54 = DIRECTION ( 'NONE',  ( -3.491481338843133355E-15, 1.224646799147353207E-16, -1.000000000000000000 ) ) ;
#55 = DIRECTION ( 'NONE',  ( -3.491481338843133355E-15, 1.224646799147353207E-16, -1.000000000000000000 ) ) ;
#56 = PRODUCT_DEFINITION ( 'UNKNOWN', '', #250, #183 ) ;
#57 = CC_DESIGN_PERSON_AND_ORGANIZATION_ASSIGNMENT ( #39, #122, ( #250 ) ) ;
#58 = APPROVAL_DATE_TIME ( #63, #15 ) ;
#59 = DIRECTION ( 'NONE',  ( 4.275831445896958607E-31, 1.000000000000000000, 1.224646799147353207E-16 ) ) ;
#60 = CARTESIAN_POINT ( 'NONE',  ( 1.745740669421566678E-14, 0.7209999999999991971, 5.000000000000000000 ) ) ;
#61 = CALENDAR_DATE ( 2021, 16, 12 ) ;
#62 = VERTEX_POINT ( 'NONE', #188 ) ;
#63 = DATE_AND_TIME ( #164, #262 ) ;
#64 = DIRECTION ( 'NONE',  ( 4.275831445896958607E-31, 1.000000000000000000, 1.224646799147353454E-16 ) ) ;
#65 = ORGANIZATION ( 'UNSPECIFIED', 'UNSPECIFIED', '' ) ;
#66 = VERTEX_POINT ( 'NONE', #229 ) ;
#67 = EDGE_LOOP ( 'NONE', ( #267 ) ) ;
#68 = ADVANCED_FACE ( 'NONE', ( #158, #186 ), #248, .T. ) ;
#69 = ORIENTED_EDGE ( 'NONE', *, *, #251, .T. ) ;
#70 = ORIENTED_EDGE ( 'NONE', *, *, #13, .F. ) ;
#71 = DIRECTION ( 'NONE',  ( -3.491481338843133355E-15, 1.224646799147353207E-16, -1.000000000000000000 ) ) ;
#72 = CIRCLE ( 'NONE', #156, 0.4799999999999999822 ) ;
#73 = DIRECTION ( 'NONE',  ( 0.0000000000000000000, 1.000000000000000000, 0.0000000000000000000 ) ) ;
#74 = FACE_BOUND ( 'NONE', #176, .T. ) ;
#75 = DIRECTION ( 'NONE',  ( 5.342385421323821257E-31, 1.000000000000000000, 1.503747812046470730E-16 ) ) ;
#76 = AXIS2_PLACEMENT_3D ( 'NONE', #194, #216, #22 ) ;
#77 = AXIS2_PLACEMENT_3D ( 'NONE', #163, #55, #182 ) ;
#78 = PERSON_AND_ORGANIZATION_ROLE ( 'creator' ) ;
#79 = DIRECTION ( 'NONE',  ( 4.275831445896958607E-31, 1.000000000000000000, 1.224646799147353207E-16 ) ) ;
#80 = APPLICATION_PROTOCOL_DEFINITION ( 'international standard', 'config_control_design', 1994, #239 ) ;
#81 = DATE_TIME_ROLE ( 'classification_date' ) ;
#82 = CARTESIAN_POINT ( 'NONE',  ( 1.745740669421566678E-14, -6.123233995736766282E-16, 5.000000000000000000 ) ) ;
#83 = CALENDAR_DATE ( 2021, 16, 12 ) ;
#84 = CARTESIAN_POINT ( 'NONE',  ( 1.745740669421566678E-14, 0.7209999999999991971, 5.000000000000000000 ) ) ;
#85 = AXIS2_PLACEMENT_3D ( 'NONE', #118, #71, #136 ) ;
#86 = EDGE_CURVE ( 'NONE', #109, #109, #230, .T. ) ;
#87 = ADVANCED_FACE ( 'NONE', ( #74, #143 ), #207, .T. ) ;
#88 = EDGE_LOOP ( 'NONE', ( #23 ) ) ;
#89 = EDGE_LOOP ( 'NONE', ( #4 ) ) ;
#90 = CC_DESIGN_APPROVAL ( #243, ( #138 ) ) ;
#91 = AXIS2_PLACEMENT_3D ( 'NONE', #105, #170, #215 ) ;
#92 = CARTESIAN_POINT ( 'NONE',  ( 2.199633243471174014E-14, -8.673617379884035472E-16, 6.299999999999999822 ) ) ;
#93 = DIRECTION ( 'NONE',  ( 3.491481338843133355E-15, -1.224646799147353207E-16, 1.000000000000000000 ) ) ;
#94 = PERSON ( 'UNSPECIFIED', 'UNSPECIFIED', 'UNSPECIFIED', ('UNSPECIFIED'), ('UNSPECIFIED'), ('UNSPECIFIED') ) ;
#95 = CC_DESIGN_PERSON_AND_ORGANIZATION_ASSIGNMENT ( #280, #78, ( #250 ) ) ;
#96 = ORIENTED_EDGE ( 'NONE', *, *, #1, .F. ) ;
#97 = UNCERTAINTY_MEASURE_WITH_UNIT (LENGTH_MEASURE( 1.000000000000000082E-05 ), #283, 'distance_accuracy_value', 'NONE');
#98 = DIRECTION ( 'NONE',  ( -3.491481338843133355E-15, 1.224646799147353207E-16, -1.000000000000000000 ) ) ;
#99 = APPROVAL_DATE_TIME ( #18, #6 ) ;
#100 = DIRECTION ( 'NONE',  ( 0.0000000000000000000, 1.000000000000000000, 0.0000000000000000000 ) ) ;
#101 = CLOSED_SHELL ( 'NONE', ( #129, #68, #28, #87, #197, #177, #233 ) ) ;
#102 = COORDINATED_UNIVERSAL_TIME_OFFSET ( 1, 0, .AHEAD. ) ;
#103 = DIRECTION ( 'NONE',  ( -3.491481338843133355E-15, 1.224646799147353207E-16, -1.000000000000000000 ) ) ;
#104 = APPROVAL_DATE_TIME ( #12, #243 ) ;
#105 = CARTESIAN_POINT ( 'NONE',  ( 1.745740669421566678E-14, 5.406634016495986331E-33, 5.000000000000000000 ) ) ;
#106 = PERSON_AND_ORGANIZATION ( #94, #65 ) ;
#107 = AXIS2_PLACEMENT_3D ( 'NONE', #10, #98, #160 ) ;
#108 = FACE_OUTER_BOUND ( 'NONE', #245, .T. ) ;
#109 = VERTEX_POINT ( 'NONE', #209 ) ;
#110 = EDGE_CURVE ( 'NONE', #66, #66, #72, .T. ) ;
#111 = EDGE_LOOP ( 'NONE', ( #131 ) ) ;
#112 = EDGE_LOOP ( 'NONE', ( #155 ) ) ;
#113 = APPROVAL_PERSON_ORGANIZATION ( #41, #15, #125 ) ;
#114 = ADVANCED_BREP_SHAPE_REPRESENTATION ( '62351', ( #141, #234, #76 ), #172 ) ;
#115 = AXIS2_PLACEMENT_3D ( 'NONE', #281, #238, #231 ) ;
#116 = ORIENTED_EDGE ( 'NONE', *, *, #202, .F. ) ;
#117 = FACE_OUTER_BOUND ( 'NONE', #244, .T. ) ;
#118 = CARTESIAN_POINT ( 'NONE',  ( 0.0000000000000000000, 0.0000000000000000000, 0.0000000000000000000 ) ) ;
#119 = FACE_OUTER_BOUND ( 'NONE', #200, .T. ) ;
#120 = ORIENTED_EDGE ( 'NONE', *, *, #153, .F. ) ;
#121 = CARTESIAN_POINT ( 'NONE',  ( -1.579215137434749505E-31, 5.539141056573192234E-33, -4.523051920300414778E-17 ) ) ;
#122 = PERSON_AND_ORGANIZATION_ROLE ( 'design_supplier' ) ;
#123 = DIRECTION ( 'NONE',  ( -3.491481338843133355E-15, 1.224646799147353207E-16, -1.000000000000000000 ) ) ;
#124 = PERSON_AND_ORGANIZATION ( #94, #65 ) ;
#125 = APPROVAL_ROLE ( '' ) ;
#126 = CARTESIAN_POINT ( 'NONE',  ( 2.199633243471174014E-14, 0.7209999999999991971, 6.299999999999999822 ) ) ;
#127 = AXIS2_PLACEMENT_3D ( 'NONE', #272, #223, #30 ) ;
#128 = CARTESIAN_POINT ( 'NONE',  ( 2.199633243471174014E-14, -7.715274834628325378E-16, 6.299999999999999822 ) ) ;
#129 = ADVANCED_FACE ( 'NONE', ( #5 ), #224, .F. ) ;
#130 = EDGE_LOOP ( 'NONE', ( #70 ) ) ;
#131 = ORIENTED_EDGE ( 'NONE', *, *, #110, .F. ) ;
#132 = CC_DESIGN_APPROVAL ( #15, ( #250 ) ) ;
#133 = AXIS2_PLACEMENT_3D ( 'NONE', #19, #123, #59 ) ;
#134 = CC_DESIGN_PERSON_AND_ORGANIZATION_ASSIGNMENT ( #227, #35, ( #56 ) ) ;
#135 = PRODUCT_RELATED_PRODUCT_CATEGORY ( 'detail', '', ( #34 ) ) ;
#136 = DIRECTION ( 'NONE',  ( 4.275831445896958607E-31, 1.000000000000000000, 1.224646799147353207E-16 ) ) ;
#137 = DIRECTION ( 'NONE',  ( -4.275831445896958607E-31, -1.000000000000000000, -1.224646799147353207E-16 ) ) ;
#138 = SECURITY_CLASSIFICATION ( '', '', #16 ) ;
#139 = CARTESIAN_POINT ( 'NONE',  ( 1.042207179644675275E-13, -3.655570695454848748E-15, 29.84999999999999787 ) ) ;
#140 = AXIS2_PLACEMENT_3D ( 'NONE', #157, #228, #226 ) ;
#141 = MANIFOLD_SOLID_BREP ( 'Corps-Déplacer/Copier1[1]', #101 ) ;
#142 = FACE_OUTER_BOUND ( 'NONE', #112, .T. ) ;
#143 = FACE_OUTER_BOUND ( 'NONE', #67, .T. ) ;
#144 = APPROVAL_ROLE ( '' ) ;
#145 = FACE_OUTER_BOUND ( 'NONE', #47, .T. ) ;
#146 = ADVANCED_FACE ( 'NONE', ( #51, #142 ), #38, .T. ) ;
#147 = PRODUCT_DEFINITION_SHAPE ( 'NONE', 'NONE',  #56 ) ;
#148 = ADVANCED_FACE ( 'NONE', ( #270, #252 ), #179, .T. ) ;
#149 = APPROVAL_STATUS ( 'not_yet_approved' ) ;
#150 = VERTEX_POINT ( 'NONE', #60 ) ;
#151 = FACE_OUTER_BOUND ( 'NONE', #218, .T. ) ;
#152 = PLANE ( 'NONE',  #115 ) ;
#153 = EDGE_CURVE ( 'NONE', #150, #150, #246, .T. ) ;
#154 = ORIENTED_EDGE ( 'NONE', *, *, #86, .F. ) ;
#155 = ORIENTED_EDGE ( 'NONE', *, *, #1, .T. ) ;
#156 = AXIS2_PLACEMENT_3D ( 'NONE', #121, #274, #181 ) ;
#157 = CARTESIAN_POINT ( 'NONE',  ( 2.260404474073794498E-14, -7.928431617709984555E-16, 6.474055722213186037 ) ) ;
#158 = FACE_OUTER_BOUND ( 'NONE', #88, .T. ) ;
#159 = LOCAL_TIME ( 11, 16, 22.00000000000000000, #211 ) ;
#160 = DIRECTION ( 'NONE',  ( 0.0000000000000000000, 1.000000000000000000, 0.0000000000000000000 ) ) ;
#161 = CIRCLE ( 'NONE', #180, 0.7209999999999993081 ) ;
#162 = APPROVAL_STATUS ( 'not_yet_approved' ) ;
#163 = CARTESIAN_POINT ( 'NONE',  ( 0.0000000000000000000, 0.0000000000000000000, 0.0000000000000000000 ) ) ;
#164 = CALENDAR_DATE ( 2021, 16, 12 ) ;
#165 = DIRECTION ( 'NONE',  ( -3.491481338843133355E-15, 1.224646799147353207E-16, -1.000000000000000000 ) ) ;
#166 = EDGE_CURVE ( 'NONE', #14, #14, #187, .T. ) ;
#167 = VERTEX_POINT ( 'NONE', #84 ) ;
#168 = PERSON_AND_ORGANIZATION_ROLE ( 'design_owner' ) ;
#169 = VERTEX_POINT ( 'NONE', #258 ) ;
#170 = DIRECTION ( 'NONE',  ( 3.491481338843133355E-15, -1.224646799147353207E-16, 1.000000000000000000 ) ) ;
#171 =( NAMED_UNIT ( * ) PLANE_ANGLE_UNIT ( ) SI_UNIT ( $, .RADIAN. ) );
#172 =( GEOMETRIC_REPRESENTATION_CONTEXT ( 3 ) GLOBAL_UNCERTAINTY_ASSIGNED_CONTEXT ( ( #97 ) ) GLOBAL_UNIT_ASSIGNED_CONTEXT ( ( #283, #171, #278 ) ) REPRESENTATION_CONTEXT ( 'NONE', 'WORKASPACE' ) );
#173 = EDGE_LOOP ( 'NONE', ( #69 ) ) ;
#174 = APPROVAL_PERSON_ORGANIZATION ( #254, #6, #189 ) ;
#175 = AXIS2_PLACEMENT_3D ( 'NONE', #192, #103, #64 ) ;
#176 = EDGE_LOOP ( 'NONE', ( #116 ) ) ;
#177 = ADVANCED_FACE ( 'NONE', ( #9, #204 ), #264, .T. ) ;
#178 = CARTESIAN_POINT ( 'NONE',  ( 1.745740669421566678E-14, 5.406634016495986331E-33, 5.000000000000000000 ) ) ;
#179 = CYLINDRICAL_SURFACE ( 'NONE', #85, 0.7209999999999996412 ) ;
#180 = AXIS2_PLACEMENT_3D ( 'NONE', #36, #11, #75 ) ;
#181 = DIRECTION ( 'NONE',  ( 4.275831445896957731E-31, 1.000000000000000000, 1.224646799147353207E-16 ) ) ;
#182 = DIRECTION ( 'NONE',  ( 4.275831445896958607E-31, 1.000000000000000000, 1.224646799147353207E-16 ) ) ;
#183 = DESIGN_CONTEXT ( 'detailed design', #239, 'design' ) ;
#184 = LOCAL_TIME ( 11, 16, 22.00000000000000000, #191 ) ;
#185 = DATE_AND_TIME ( #83, #212 ) ;
#186 = FACE_OUTER_BOUND ( 'NONE', #25, .T. ) ;
#187 = CIRCLE ( 'NONE', #195, 0.6000000000000000888 ) ;
#188 = CARTESIAN_POINT ( 'NONE',  ( 1.042207179644675275E-13, 0.7499999999999962252, 29.84999999999999787 ) ) ;
#189 = APPROVAL_ROLE ( '' ) ;
#190 = DIRECTION ( 'NONE',  ( 0.0000000000000000000, 1.000000000000000000, 0.0000000000000000000 ) ) ;
#191 = COORDINATED_UNIVERSAL_TIME_OFFSET ( 1, 0, .AHEAD. ) ;
#192 = CARTESIAN_POINT ( 'NONE',  ( 0.0000000000000000000, 0.0000000000000000000, 0.0000000000000000000 ) ) ;
#193 = DIRECTION ( 'NONE',  ( -3.491481338843133355E-15, 1.224646799147353207E-16, -1.000000000000000000 ) ) ;
#194 = CARTESIAN_POINT ( 'NONE',  ( 0.0000000000000000000, 0.0000000000000000000, 0.0000000000000000000 ) ) ;
#195 = AXIS2_PLACEMENT_3D ( 'NONE', #29, #249, #73 ) ;
#196 = ORIENTED_EDGE ( 'NONE', *, *, #166, .F. ) ;
#197 = ADVANCED_FACE ( 'NONE', ( #145, #40 ), #263, .T. ) ;
#198 = TOROIDAL_SURFACE ( 'NONE', #3, 1.221000000000000085, 0.5000000000000000000 ) ;
#199 = CC_DESIGN_DATE_AND_TIME_ASSIGNMENT ( #205, #81, ( #138 ) ) ;
#200 = EDGE_LOOP ( 'NONE', ( #52 ) ) ;
#201 = CARTESIAN_POINT ( 'NONE',  ( 2.260404474073794498E-14, -7.928431617709984555E-16, 6.474055722213186037 ) ) ;
#202 = EDGE_CURVE ( 'NONE', #21, #21, #27, .T. ) ;
#203 = DIRECTION ( 'NONE',  ( -3.491481338843133355E-15, 1.224646799147353207E-16, -1.000000000000000000 ) ) ;
#204 = FACE_BOUND ( 'NONE', #89, .T. ) ;
#205 = DATE_AND_TIME ( #61, #159 ) ;
#206 = COORDINATED_UNIVERSAL_TIME_OFFSET ( 1, 0, .AHEAD. ) ;
#207 = CONICAL_SURFACE ( 'NONE', #140, 0.7499999999999971134, 0.2617993877991468543 ) ;
#208 = PERSON_AND_ORGANIZATION ( #94, #65 ) ;
#209 = CARTESIAN_POINT ( 'NONE',  ( 2.260404474073794498E-14, 0.7499999999999963363, 6.474055722213186037 ) ) ;
#210 = APPLICATION_PROTOCOL_DEFINITION ( 'international standard', 'config_control_design', 1994, #220 ) ;
#211 = COORDINATED_UNIVERSAL_TIME_OFFSET ( 1, 0, .AHEAD. ) ;
#212 = LOCAL_TIME ( 11, 16, 22.00000000000000000, #232 ) ;
#213 = DIRECTION ( 'NONE',  ( 0.0000000000000000000, 1.000000000000000000, 0.0000000000000000000 ) ) ;
#214 = CIRCLE ( 'NONE', #253, 0.7209999999999998632 ) ;
#215 = DIRECTION ( 'NONE',  ( -4.275831445896958607E-31, -1.000000000000000000, -1.224646799147353207E-16 ) ) ;
#216 = DIRECTION ( 'NONE',  ( 0.0000000000000000000, 0.0000000000000000000, 1.000000000000000000 ) ) ;
#217 = ORIENTED_EDGE ( 'NONE', *, *, #202, .T. ) ;
#218 = EDGE_LOOP ( 'NONE', ( #196 ) ) ;
#219 = ORIENTED_EDGE ( 'NONE', *, *, #153, .T. ) ;
#220 = APPLICATION_CONTEXT ( 'configuration controlled 3d designs of mechanical parts and assemblies' ) ;
#221 = AXIS2_PLACEMENT_3D ( 'NONE', #139, #203, #100 ) ;
#222 = CARTESIAN_POINT ( 'NONE',  ( 1.745740669421566678E-14, -6.123233995736766282E-16, 5.000000000000000000 ) ) ;
#223 = DIRECTION ( 'NONE',  ( 3.491481338843133355E-15, -1.224646799147353207E-16, 1.000000000000000000 ) ) ;
#224 = PLANE ( 'NONE',  #31 ) ;
#225 = AXIS2_PLACEMENT_3D ( 'NONE', #201, #247, #255 ) ;
#226 = DIRECTION ( 'NONE',  ( 0.0000000000000000000, -1.000000000000000000, 0.0000000000000000000 ) ) ;
#227 = PERSON_AND_ORGANIZATION ( #94, #65 ) ;
#228 = DIRECTION ( 'NONE',  ( 3.491481338843133355E-15, -1.224646799147353207E-16, 1.000000000000000000 ) ) ;
#229 = CARTESIAN_POINT ( 'NONE',  ( 4.731839565957901202E-32, 0.4799999999999999822, 1.355252715606880543E-17 ) ) ;
#230 = CIRCLE ( 'NONE', #225, 0.7499999999999971134 ) ;
#231 = DIRECTION ( 'NONE',  ( -4.275831445896958607E-31, -1.000000000000000000, -1.224646799147353207E-16 ) ) ;
#232 = COORDINATED_UNIVERSAL_TIME_OFFSET ( 1, 0, .AHEAD. ) ;
#233 = ADVANCED_FACE ( 'NONE', ( #151 ), #261, .F. ) ;
#234 = MANIFOLD_SOLID_BREP ( 'Corps-Déplacer/Copier1[2]', #24 ) ;
#235 = VERTEX_POINT ( 'NONE', #126 ) ;
#236 = CALENDAR_DATE ( 2021, 16, 12 ) ;
#237 = CC_DESIGN_SECURITY_CLASSIFICATION ( #138, ( #250 ) ) ;
#238 = DIRECTION ( 'NONE',  ( 3.491481338843133355E-15, -1.224646799147353207E-16, 1.000000000000000000 ) ) ;
#239 = APPLICATION_CONTEXT ( 'configuration controlled 3d designs of mechanical parts and assemblies' ) ;
#240 = CIRCLE ( 'NONE', #53, 0.7209999999999999742 ) ;
#241 = CARTESIAN_POINT ( 'NONE',  ( 2.244816336776805305E-14, 0.7380370868554638752, 6.429409522551257083 ) ) ;
#242 = EDGE_CURVE ( 'NONE', #235, #235, #240, .T. ) ;
#243 = APPROVAL ( #162, 'UNSPECIFIED' ) ;
#244 = EDGE_LOOP ( 'NONE', ( #217 ) ) ;
#245 = EDGE_LOOP ( 'NONE', ( #33 ) ) ;
#246 = CIRCLE ( 'NONE', #45, 0.7209999999999998632 ) ;
#247 = DIRECTION ( 'NONE',  ( -3.491481338843133355E-15, 1.224646799147353207E-16, -1.000000000000000000 ) ) ;
#248 = CYLINDRICAL_SURFACE ( 'NONE', #77, 0.7209999999999998632 ) ;
#249 = DIRECTION ( 'NONE',  ( -3.491481338843133355E-15, 1.224646799147353207E-16, -1.000000000000000000 ) ) ;
#250 = PRODUCT_DEFINITION_FORMATION_WITH_SPECIFIED_SOURCE ( 'ANY', '', #34, .NOT_KNOWN. ) ;
#251 = EDGE_CURVE ( 'NONE', #167, #167, #214, .T. ) ;
#252 = FACE_OUTER_BOUND ( 'NONE', #273, .T. ) ;
#253 = AXIS2_PLACEMENT_3D ( 'NONE', #82, #257, #17 ) ;
#254 = PERSON_AND_ORGANIZATION ( #94, #65 ) ;
#255 = DIRECTION ( 'NONE',  ( 0.0000000000000000000, 1.000000000000000000, 0.0000000000000000000 ) ) ;
#256 = CALENDAR_DATE ( 2021, 16, 12 ) ;
#257 = DIRECTION ( 'NONE',  ( -3.491481338843133355E-15, 1.224646799147353207E-16, -1.000000000000000000 ) ) ;
#258 = CARTESIAN_POINT ( 'NONE',  ( 3.140322965808199017E-15, 0.7209999999999991971, 0.8994242446241206279 ) ) ;
#259 = ADVANCED_FACE ( 'NONE', ( #46 ), #37, .T. ) ;
#260 = APPROVAL_STATUS ( 'not_yet_approved' ) ;
#261 = PLANE ( 'NONE',  #133 ) ;
#262 = LOCAL_TIME ( 11, 16, 22.00000000000000000, #102 ) ;
#263 = CYLINDRICAL_SURFACE ( 'NONE', #175, 0.7499999999999984457 ) ;
#264 = CONICAL_SURFACE ( 'NONE', #107, 0.6000000000000000888, 0.7853981633974450594 ) ;
#265 = ADVANCED_FACE ( 'NONE', ( #108 ), #152, .F. ) ;
#266 = ORIENTED_EDGE ( 'NONE', *, *, #13, .T. ) ;
#267 = ORIENTED_EDGE ( 'NONE', *, *, #86, .T. ) ;
#268 = CIRCLE ( 'NONE', #221, 0.7499999999999998890 ) ;
#269 = ORIENTED_EDGE ( 'NONE', *, *, #242, .T. ) ;
#270 = FACE_OUTER_BOUND ( 'NONE', #50, .T. ) ;
#271 = CC_DESIGN_DATE_AND_TIME_ASSIGNMENT ( #185, #276, ( #56 ) ) ;
#272 = CARTESIAN_POINT ( 'NONE',  ( 3.140322965808198623E-15, -1.101477022254455355E-16, 0.8994242446241205169 ) ) ;
#273 = EDGE_LOOP ( 'NONE', ( #219 ) ) ;
#274 = DIRECTION ( 'NONE',  ( -3.491481338843133355E-15, 1.224646799147353207E-16, -1.000000000000000000 ) ) ;
#275 = LOCAL_TIME ( 11, 16, 22.00000000000000000, #206 ) ;
#276 = DATE_TIME_ROLE ( 'creation_date' ) ;
#277 = DIRECTION ( 'NONE',  ( -3.491481338843133355E-15, 1.224646799147353207E-16, -1.000000000000000000 ) ) ;
#278 =( NAMED_UNIT ( * ) SI_UNIT ( $, .STERADIAN. ) SOLID_ANGLE_UNIT ( ) );
#279 = PERSON_AND_ORGANIZATION_ROLE ( 'classification_officer' ) ;
#280 = PERSON_AND_ORGANIZATION ( #94, #65 ) ;
#281 = CARTESIAN_POINT ( 'NONE',  ( -7.896075687173747526E-32, 2.769570528286596117E-33, -2.261525960150207389E-17 ) ) ;
#282 = SHAPE_DEFINITION_REPRESENTATION ( #147, #114 ) ;
#283 =( LENGTH_UNIT ( ) NAMED_UNIT ( * ) SI_UNIT ( .MILLI., .METRE. ) );
ENDSEC;
END-ISO-10303-21;
