ISO-10303-21;
HEADER;
FILE_DESCRIPTION (( 'STEP AP203' ),
    '1' );
FILE_NAME ('62348.step',
    '2021-12-16T10:16:22',
    ( '' ),
    ( '' ),
    'SwSTEP 2.0',
    'SolidWorks 2019',
    '' );
FILE_SCHEMA (( 'CONFIG_CONTROL_DESIGN' ));
ENDSEC;

DATA;
#1 = CARTESIAN_POINT ( 'NONE',  ( 0.0000000000000000000, 0.0000000000000000000, 0.0000000000000000000 ) ) ;
#2 = CLOSED_SHELL ( 'NONE', ( #269, #142, #76, #149 ) ) ;
#3 = DIRECTION ( 'NONE',  ( -4.275831445896958607E-31, -1.000000000000000000, -1.224646799147353207E-16 ) ) ;
#4 = CIRCLE ( 'NONE', #30, 0.6350370868554652271 ) ;
#5 = CYLINDRICAL_SURFACE ( 'NONE', #147, 0.6180000000000001048 ) ;
#6 = VERTEX_POINT ( 'NONE', #263 ) ;
#7 = CARTESIAN_POINT ( 'NONE',  ( 1.745740669421566678E-14, -6.123233995736766282E-16, 5.000000000000000000 ) ) ;
#8 = VERTEX_POINT ( 'NONE', #42 ) ;
#9 = COORDINATED_UNIVERSAL_TIME_OFFSET ( 1, 0, .AHEAD. ) ;
#10 = AXIS2_PLACEMENT_3D ( 'NONE', #87, #152, #25 ) ;
#11 = AXIS2_PLACEMENT_3D ( 'NONE', #20, #171, #192 ) ;
#12 = FACE_OUTER_BOUND ( 'NONE', #53, .T. ) ;
#13 = DIRECTION ( 'NONE',  ( -6.232782991544458571E-31, -1.000000000000000000, -1.754372447387549309E-16 ) ) ;
#14 = PERSON_AND_ORGANIZATION ( #108, #77 ) ;
#15 = EDGE_LOOP ( 'NONE', ( #51 ) ) ;
#16 = CIRCLE ( 'NONE', #27, 0.7499999999999998890 ) ;
#17 = PERSON_AND_ORGANIZATION_ROLE ( 'design_owner' ) ;
#18 = PLANE ( 'NONE',  #21 ) ;
#19 = ADVANCED_FACE ( 'NONE', ( #60, #104 ), #79, .T. ) ;
#20 = CARTESIAN_POINT ( 'NONE',  ( 0.0000000000000000000, 0.0000000000000000000, 0.0000000000000000000 ) ) ;
#21 = AXIS2_PLACEMENT_3D ( 'NONE', #101, #220, #281 ) ;
#22 = PERSON_AND_ORGANIZATION ( #108, #77 ) ;
#23 = APPROVAL ( #241, 'UNSPECIFIED' ) ;
#24 = DIRECTION ( 'NONE',  ( 0.0000000000000000000, 0.0000000000000000000, 1.000000000000000000 ) ) ;
#25 = DIRECTION ( 'NONE',  ( -4.275831445896958607E-31, -1.000000000000000000, -1.224646799147353207E-16 ) ) ;
#26 = APPLICATION_CONTEXT ( 'configuration controlled 3d designs of mechanical parts and assemblies' ) ;
#27 = AXIS2_PLACEMENT_3D ( 'NONE', #176, #262, #65 ) ;
#28 = FACE_OUTER_BOUND ( 'NONE', #253, .T. ) ;
#29 = PRODUCT_DEFINITION_SHAPE ( 'NONE', 'NONE',  #70 ) ;
#30 = AXIS2_PLACEMENT_3D ( 'NONE', #172, #58, #122 ) ;
#31 = EDGE_LOOP ( 'NONE', ( #160 ) ) ;
#32 = ORIENTED_EDGE ( 'NONE', *, *, #121, .F. ) ;
#33 = CIRCLE ( 'NONE', #63, 0.6000000000000000888 ) ;
#34 = CARTESIAN_POINT ( 'NONE',  ( 2.359702633912850181E-14, -8.276722677596944724E-16, 6.758456955392788679 ) ) ;
#35 = CARTESIAN_POINT ( 'NONE',  ( 2.645168307299022554E-15, -9.278001473761594945E-17, 0.7576063139365000199 ) ) ;
#36 = AXIS2_PLACEMENT_3D ( 'NONE', #64, #197, #13 ) ;
#37 = DIRECTION ( 'NONE',  ( 4.275831445896957731E-31, 1.000000000000000000, 1.224646799147353207E-16 ) ) ;
#38 = CARTESIAN_POINT ( 'NONE',  ( 1.047444401652940007E-13, -3.673940397442059178E-15, 30.00000000000000000 ) ) ;
#39 = DIRECTION ( 'NONE',  ( 0.0000000000000000000, 1.000000000000000000, 0.0000000000000000000 ) ) ;
#40 = AXIS2_PLACEMENT_3D ( 'NONE', #156, #90, #155 ) ;
#41 = ADVANCED_FACE ( 'NONE', ( #119, #12 ), #260, .T. ) ;
#42 = CARTESIAN_POINT ( 'NONE',  ( 1.745740669421566678E-14, 0.6179999999999993276, 5.000000000000000000 ) ) ;
#43 = PLANE ( 'NONE',  #40 ) ;
#44 = PERSON_AND_ORGANIZATION ( #108, #77 ) ;
#45 = CARTESIAN_POINT ( 'NONE',  ( 2.359702633912850181E-14, 0.7499999999999963363, 6.758456955392788679 ) ) ;
#46 = AXIS2_PLACEMENT_3D ( 'NONE', #34, #96, #279 ) ;
#47 = AXIS2_PLACEMENT_3D ( 'NONE', #38, #145, #39 ) ;
#48 = EDGE_CURVE ( 'NONE', #129, #129, #92, .T. ) ;
#49 = ORIENTED_EDGE ( 'NONE', *, *, #278, .T. ) ;
#50 = EDGE_LOOP ( 'NONE', ( #154 ) ) ;
#51 = ORIENTED_EDGE ( 'NONE', *, *, #226, .T. ) ;
#52 = PRODUCT_RELATED_PRODUCT_CATEGORY ( 'detail', '', ( #248 ) ) ;
#53 = EDGE_LOOP ( 'NONE', ( #177 ) ) ;
#54 = APPROVAL_DATE_TIME ( #161, #210 ) ;
#55 = DATE_AND_TIME ( #164, #56 ) ;
#56 = LOCAL_TIME ( 11, 16, 22.00000000000000000, #184 ) ;
#57 = MANIFOLD_SOLID_BREP ( 'Corps-Déplacer/Copier1[2]', #2 ) ;
#58 = DIRECTION ( 'NONE',  ( -3.491481338843133355E-15, 1.224646799147353207E-16, -1.000000000000000000 ) ) ;
#59 = APPLICATION_PROTOCOL_DEFINITION ( 'international standard', 'config_control_design', 1994, #283 ) ;
#60 = FACE_OUTER_BOUND ( 'NONE', #136, .T. ) ;
#61 = PERSON_AND_ORGANIZATION ( #108, #77 ) ;
#62 = CC_DESIGN_PERSON_AND_ORGANIZATION_ASSIGNMENT ( #22, #144, ( #175 ) ) ;
#63 = AXIS2_PLACEMENT_3D ( 'NONE', #68, #106, #199 ) ;
#64 = CARTESIAN_POINT ( 'NONE',  ( 2.645168307299022554E-15, -9.278001473761594945E-17, 0.7576063139365000199 ) ) ;
#65 = DIRECTION ( 'NONE',  ( 0.0000000000000000000, 1.000000000000000000, 0.0000000000000000000 ) ) ;
#66 = CARTESIAN_POINT ( 'NONE',  ( 2.645168307299022949E-15, 0.6179999999999993276, 0.7576063139365001309 ) ) ;
#67 = CALENDAR_DATE ( 2021, 16, 12 ) ;
#68 = CARTESIAN_POINT ( 'NONE',  ( 1.047444401652940007E-13, -3.673940397442059178E-15, 30.00000000000000000 ) ) ;
#69 = VERTEX_POINT ( 'NONE', #246 ) ;
#70 = PRODUCT_DEFINITION ( 'UNKNOWN', '', #175, #257 ) ;
#71 = DIRECTION ( 'NONE',  ( 0.0000000000000000000, 1.000000000000000000, 0.0000000000000000000 ) ) ;
#72 = AXIS2_PLACEMENT_3D ( 'NONE', #1, #85, #37 ) ;
#73 =( GEOMETRIC_REPRESENTATION_CONTEXT ( 3 ) GLOBAL_UNCERTAINTY_ASSIGNED_CONTEXT ( ( #276 ) ) GLOBAL_UNIT_ASSIGNED_CONTEXT ( ( #151, #158, #249 ) ) REPRESENTATION_CONTEXT ( 'NONE', 'WORKASPACE' ) );
#74 = EDGE_LOOP ( 'NONE', ( #138 ) ) ;
#75 = EDGE_LOOP ( 'NONE', ( #49 ) ) ;
#76 = ADVANCED_FACE ( 'NONE', ( #150, #146 ), #189, .T. ) ;
#77 = ORGANIZATION ( 'UNSPECIFIED', 'UNSPECIFIED', '' ) ;
#78 = PERSON_AND_ORGANIZATION ( #108, #77 ) ;
#79 = CYLINDRICAL_SURFACE ( 'NONE', #11, 0.7499999999999984457 ) ;
#80 = PLANE ( 'NONE',  #157 ) ;
#81 = ADVANCED_FACE ( 'NONE', ( #124, #213 ), #168, .F. ) ;
#82 = DIRECTION ( 'NONE',  ( -3.491481338843133355E-15, 1.224646799147353207E-16, -1.000000000000000000 ) ) ;
#83 = CARTESIAN_POINT ( 'NONE',  ( 2.164718430082742680E-14, -7.592810154713589835E-16, 6.200000000000000178 ) ) ;
#84 = CC_DESIGN_APPROVAL ( #210, ( #175 ) ) ;
#85 = DIRECTION ( 'NONE',  ( -3.491481338843133355E-15, 1.224646799147353207E-16, -1.000000000000000000 ) ) ;
#86 = FACE_OUTER_BOUND ( 'NONE', #219, .T. ) ;
#87 = CARTESIAN_POINT ( 'NONE',  ( -6.506430467257236723E-32, 2.282148598921492258E-33, -1.863515750427317554E-17 ) ) ;
#88 = CIRCLE ( 'NONE', #105, 0.6179999999999999938 ) ;
#89 = DIRECTION ( 'NONE',  ( -3.491481338843133355E-15, 1.224646799147353207E-16, -1.000000000000000000 ) ) ;
#90 = DIRECTION ( 'NONE',  ( 3.491481338843133355E-15, -1.224646799147353207E-16, 1.000000000000000000 ) ) ;
#91 = CC_DESIGN_PERSON_AND_ORGANIZATION_ASSIGNMENT ( #78, #17, ( #248 ) ) ;
#92 = CIRCLE ( 'NONE', #46, 0.7499999999999972244 ) ;
#93 = EDGE_CURVE ( 'NONE', #6, #6, #198, .T. ) ;
#94 = CALENDAR_DATE ( 2021, 16, 12 ) ;
#95 = CC_DESIGN_DATE_AND_TIME_ASSIGNMENT ( #237, #214, ( #247 ) ) ;
#96 = DIRECTION ( 'NONE',  ( -3.491481338843133355E-15, 1.224646799147353207E-16, -1.000000000000000000 ) ) ;
#97 = APPROVAL_STATUS ( 'not_yet_approved' ) ;
#98 = CONICAL_SURFACE ( 'NONE', #36, 0.6179999999999994387, 0.2617993877991428020 ) ;
#99 = ORIENTED_EDGE ( 'NONE', *, *, #93, .F. ) ;
#100 = CC_DESIGN_PERSON_AND_ORGANIZATION_ASSIGNMENT ( #61, #234, ( #247 ) ) ;
#101 = CARTESIAN_POINT ( 'NONE',  ( 1.047444401652940007E-13, 4.499279347985518085E-33, 30.00000000000000000 ) ) ;
#102 = ORIENTED_EDGE ( 'NONE', *, *, #48, .F. ) ;
#103 = DIRECTION ( 'NONE',  ( 4.275831445896958607E-31, 1.000000000000000000, 1.224646799147353207E-16 ) ) ;
#104 = FACE_OUTER_BOUND ( 'NONE', #243, .T. ) ;
#105 = AXIS2_PLACEMENT_3D ( 'NONE', #7, #242, #265 ) ;
#106 = DIRECTION ( 'NONE',  ( -3.491481338843133355E-15, 1.224646799147353207E-16, -1.000000000000000000 ) ) ;
#107 = APPLICATION_PROTOCOL_DEFINITION ( 'international standard', 'config_control_design', 1994, #26 ) ;
#108 = PERSON ( 'UNSPECIFIED', 'UNSPECIFIED', 'UNSPECIFIED', ('UNSPECIFIED'), ('UNSPECIFIED'), ('UNSPECIFIED') ) ;
#109 = DIRECTION ( 'NONE',  ( 4.275831445896958607E-31, 1.000000000000000000, 1.224646799147352961E-16 ) ) ;
#110 = DATE_AND_TIME ( #67, #272 ) ;
#111 = AXIS2_PLACEMENT_3D ( 'NONE', #223, #24, #134 ) ;
#112 = CARTESIAN_POINT ( 'NONE',  ( 4.731839565957905581E-32, 0.4149999999999999800, 1.355252715606880543E-17 ) ) ;
#113 = DIRECTION ( 'NONE',  ( -3.491481338843133355E-15, 1.224646799147353207E-16, -1.000000000000000000 ) ) ;
#114 = ORIENTED_EDGE ( 'NONE', *, *, #226, .F. ) ;
#115 = EDGE_CURVE ( 'NONE', #183, #183, #4, .T. ) ;
#116 = LOCAL_TIME ( 11, 16, 22.00000000000000000, #232 ) ;
#117 = PERSON_AND_ORGANIZATION_ROLE ( 'creator' ) ;
#118 = ORIENTED_EDGE ( 'NONE', *, *, #93, .T. ) ;
#119 = FACE_BOUND ( 'NONE', #196, .T. ) ;
#120 = CALENDAR_DATE ( 2021, 16, 12 ) ;
#121 = EDGE_CURVE ( 'NONE', #200, #200, #123, .T. ) ;
#122 = DIRECTION ( 'NONE',  ( 0.0000000000000000000, 1.000000000000000000, 0.0000000000000000000 ) ) ;
#123 = CIRCLE ( 'NONE', #254, 0.4149999999999999800 ) ;
#124 = FACE_OUTER_BOUND ( 'NONE', #165, .T. ) ;
#125 = APPROVAL_ROLE ( '' ) ;
#126 = DIRECTION ( 'NONE',  ( 6.232782991544458571E-31, 1.000000000000000000, 1.754372447387549309E-16 ) ) ;
#127 = APPROVAL ( #97, 'UNSPECIFIED' ) ;
#128 = VERTEX_POINT ( 'NONE', #271 ) ;
#129 = VERTEX_POINT ( 'NONE', #45 ) ;
#130 = COORDINATED_UNIVERSAL_TIME_OFFSET ( 1, 0, .AHEAD. ) ;
#131 = LOCAL_TIME ( 11, 16, 22.00000000000000000, #130 ) ;
#132 = VERTEX_POINT ( 'NONE', #204 ) ;
#133 = APPROVAL_STATUS ( 'not_yet_approved' ) ;
#134 = DIRECTION ( 'NONE',  ( 1.000000000000000000, 0.0000000000000000000, 0.0000000000000000000 ) ) ;
#135 = APPROVAL_DATE_TIME ( #55, #23 ) ;
#136 = EDGE_LOOP ( 'NONE', ( #102 ) ) ;
#137 = CONICAL_SURFACE ( 'NONE', #47, 0.6000000000000000888, 0.7853981633974450594 ) ;
#138 = ORIENTED_EDGE ( 'NONE', *, *, #194, .T. ) ;
#139 = ORIENTED_EDGE ( 'NONE', *, *, #121, .T. ) ;
#140 = CC_DESIGN_APPROVAL ( #127, ( #247 ) ) ;
#141 = PERSON_AND_ORGANIZATION ( #108, #77 ) ;
#142 = ADVANCED_FACE ( 'NONE', ( #261, #231 ), #98, .T. ) ;
#143 = CARTESIAN_POINT ( 'NONE',  ( 2.164718430082742365E-14, -8.673617379884035472E-16, 6.199999999999999289 ) ) ;
#144 = PERSON_AND_ORGANIZATION_ROLE ( 'design_supplier' ) ;
#145 = DIRECTION ( 'NONE',  ( -3.491481338843133355E-15, 1.224646799147353207E-16, -1.000000000000000000 ) ) ;
#146 = FACE_OUTER_BOUND ( 'NONE', #15, .T. ) ;
#147 = AXIS2_PLACEMENT_3D ( 'NONE', #227, #89, #109 ) ;
#148 = FACE_OUTER_BOUND ( 'NONE', #252, .T. ) ;
#149 = ADVANCED_FACE ( 'NONE', ( #239 ), #80, .T. ) ;
#150 = FACE_OUTER_BOUND ( 'NONE', #273, .T. ) ;
#151 =( LENGTH_UNIT ( ) NAMED_UNIT ( * ) SI_UNIT ( .MILLI., .METRE. ) );
#152 = DIRECTION ( 'NONE',  ( 3.491481338843133355E-15, -1.224646799147353207E-16, 1.000000000000000000 ) ) ;
#153 = ADVANCED_FACE ( 'NONE', ( #148, #258 ), #137, .T. ) ;
#154 = ORIENTED_EDGE ( 'NONE', *, *, #115, .T. ) ;
#155 = DIRECTION ( 'NONE',  ( -4.275831445896958607E-31, -1.000000000000000000, -1.224646799147353207E-16 ) ) ;
#156 = CARTESIAN_POINT ( 'NONE',  ( 1.745740669421566678E-14, 4.634257728425130456E-33, 5.000000000000000000 ) ) ;
#157 = AXIS2_PLACEMENT_3D ( 'NONE', #169, #238, #3 ) ;
#158 =( NAMED_UNIT ( * ) PLANE_ANGLE_UNIT ( ) SI_UNIT ( $, .RADIAN. ) );
#159 = CC_DESIGN_PERSON_AND_ORGANIZATION_ASSIGNMENT ( #182, #207, ( #70 ) ) ;
#160 = ORIENTED_EDGE ( 'NONE', *, *, #174, .T. ) ;
#161 = DATE_AND_TIME ( #94, #131 ) ;
#162 = APPROVAL_PERSON_ORGANIZATION ( #141, #23, #224 ) ;
#163 = EDGE_LOOP ( 'NONE', ( #32 ) ) ;
#164 = CALENDAR_DATE ( 2021, 16, 12 ) ;
#165 = EDGE_LOOP ( 'NONE', ( #99 ) ) ;
#166 = AXIS2_PLACEMENT_3D ( 'NONE', #143, #167, #103 ) ;
#167 = DIRECTION ( 'NONE',  ( -3.491481338843133355E-15, 1.224646799147353207E-16, -1.000000000000000000 ) ) ;
#168 = TOROIDAL_SURFACE ( 'NONE', #166, 1.118000000000000105, 0.4999999999999997780 ) ;
#169 = CARTESIAN_POINT ( 'NONE',  ( 1.745740669421566678E-14, 4.634257728425130456E-33, 5.000000000000000000 ) ) ;
#170 = ORIENTED_EDGE ( 'NONE', *, *, #115, .F. ) ;
#171 = DIRECTION ( 'NONE',  ( -3.491481338843133355E-15, 1.224646799147353207E-16, -1.000000000000000000 ) ) ;
#172 = CARTESIAN_POINT ( 'NONE',  ( 2.209901523388373656E-14, -7.751291112285172443E-16, 6.329409522551255662 ) ) ;
#173 = AXIS2_PLACEMENT_3D ( 'NONE', #218, #233, #235 ) ;
#174 = EDGE_CURVE ( 'NONE', #202, #202, #266, .T. ) ;
#175 = PRODUCT_DEFINITION_FORMATION_WITH_SPECIFIED_SOURCE ( 'ANY', '', #248, .NOT_KNOWN. ) ;
#176 = CARTESIAN_POINT ( 'NONE',  ( 1.042207179644675275E-13, -3.655570695454848748E-15, 29.84999999999999787 ) ) ;
#177 = ORIENTED_EDGE ( 'NONE', *, *, #48, .T. ) ;
#178 = PLANE ( 'NONE',  #10 ) ;
#179 = ADVANCED_FACE ( 'NONE', ( #215 ), #18, .F. ) ;
#180 = CLOSED_SHELL ( 'NONE', ( #275, #245, #81, #41, #19, #153, #179 ) ) ;
#181 = SHAPE_DEFINITION_REPRESENTATION ( #29, #229 ) ;
#182 = PERSON_AND_ORGANIZATION ( #108, #77 ) ;
#183 = VERTEX_POINT ( 'NONE', #225 ) ;
#184 = COORDINATED_UNIVERSAL_TIME_OFFSET ( 1, 0, .AHEAD. ) ;
#185 = EDGE_CURVE ( 'NONE', #128, #128, #16, .T. ) ;
#186 = CC_DESIGN_SECURITY_CLASSIFICATION ( #247, ( #175 ) ) ;
#187 = EDGE_LOOP ( 'NONE', ( #209 ) ) ;
#188 = PERSON_AND_ORGANIZATION ( #108, #77 ) ;
#189 = CYLINDRICAL_SURFACE ( 'NONE', #72, 0.6179999999999996607 ) ;
#190 = CARTESIAN_POINT ( 'NONE',  ( -1.301286093451447345E-31, 4.564297197842984515E-33, -3.727031500854635107E-17 ) ) ;
#191 = EDGE_LOOP ( 'NONE', ( #193 ) ) ;
#192 = DIRECTION ( 'NONE',  ( 4.275831445896958607E-31, 1.000000000000000000, 1.224646799147353454E-16 ) ) ;
#193 = ORIENTED_EDGE ( 'NONE', *, *, #194, .F. ) ;
#194 = EDGE_CURVE ( 'NONE', #69, #69, #33, .T. ) ;
#195 = DIRECTION ( 'NONE',  ( -3.491481338843133355E-15, 1.224646799147353207E-16, -1.000000000000000000 ) ) ;
#196 = EDGE_LOOP ( 'NONE', ( #170 ) ) ;
#197 = DIRECTION ( 'NONE',  ( 3.491481338843133355E-15, -1.224646799147353207E-16, 1.000000000000000000 ) ) ;
#198 = CIRCLE ( 'NONE', #274, 0.6180000000000001048 ) ;
#199 = DIRECTION ( 'NONE',  ( 0.0000000000000000000, 1.000000000000000000, 0.0000000000000000000 ) ) ;
#200 = VERTEX_POINT ( 'NONE', #112 ) ;
#201 = LOCAL_TIME ( 11, 16, 22.00000000000000000, #9 ) ;
#202 = VERTEX_POINT ( 'NONE', #66 ) ;
#203 = CALENDAR_DATE ( 2021, 16, 12 ) ;
#204 = CARTESIAN_POINT ( 'NONE',  ( 1.745740669421566678E-14, 0.6179999999999993276, 5.000000000000000000 ) ) ;
#205 = CC_DESIGN_PERSON_AND_ORGANIZATION_ASSIGNMENT ( #188, #117, ( #175 ) ) ;
#206 = MECHANICAL_CONTEXT ( 'NONE', #26, 'mechanical' ) ;
#207 = PERSON_AND_ORGANIZATION_ROLE ( 'creator' ) ;
#208 = AXIS2_PLACEMENT_3D ( 'NONE', #222, #113, #71 ) ;
#209 = ORIENTED_EDGE ( 'NONE', *, *, #278, .F. ) ;
#210 = APPROVAL ( #133, 'UNSPECIFIED' ) ;
#211 = CIRCLE ( 'NONE', #208, 0.6179999999999999938 ) ;
#212 = DIRECTION ( 'NONE',  ( -3.491481338843133355E-15, 1.224646799147353207E-16, -1.000000000000000000 ) ) ;
#213 = FACE_OUTER_BOUND ( 'NONE', #50, .T. ) ;
#214 = DATE_TIME_ROLE ( 'classification_date' ) ;
#215 = FACE_OUTER_BOUND ( 'NONE', #191, .T. ) ;
#216 = AXIS2_PLACEMENT_3D ( 'NONE', #35, #82, #126 ) ;
#217 = CC_DESIGN_DATE_AND_TIME_ASSIGNMENT ( #270, #244, ( #70 ) ) ;
#218 = CARTESIAN_POINT ( 'NONE',  ( 2.359702633912850181E-14, -8.276722677596944724E-16, 6.758456955392788679 ) ) ;
#219 = EDGE_LOOP ( 'NONE', ( #139 ) ) ;
#220 = DIRECTION ( 'NONE',  ( -3.491481338843133355E-15, 1.224646799147353207E-16, -1.000000000000000000 ) ) ;
#221 = CC_DESIGN_APPROVAL ( #23, ( #70 ) ) ;
#222 = CARTESIAN_POINT ( 'NONE',  ( 1.745740669421566678E-14, -6.123233995736766282E-16, 5.000000000000000000 ) ) ;
#223 = CARTESIAN_POINT ( 'NONE',  ( 0.0000000000000000000, 0.0000000000000000000, 0.0000000000000000000 ) ) ;
#224 = APPROVAL_ROLE ( '' ) ;
#225 = CARTESIAN_POINT ( 'NONE',  ( 2.209901523388373656E-14, 0.6350370868554644499, 6.329409522551255662 ) ) ;
#226 = EDGE_CURVE ( 'NONE', #132, #132, #88, .T. ) ;
#227 = CARTESIAN_POINT ( 'NONE',  ( 0.0000000000000000000, 0.0000000000000000000, 0.0000000000000000000 ) ) ;
#228 = APPROVAL_ROLE ( '' ) ;
#229 = ADVANCED_BREP_SHAPE_REPRESENTATION ( '62348', ( #250, #57, #111 ), #73 ) ;
#230 = APPROVAL_PERSON_ORGANIZATION ( #14, #127, #125 ) ;
#231 = FACE_OUTER_BOUND ( 'NONE', #31, .T. ) ;
#232 = COORDINATED_UNIVERSAL_TIME_OFFSET ( 1, 0, .AHEAD. ) ;
#233 = DIRECTION ( 'NONE',  ( 3.491481338843133355E-15, -1.224646799147353207E-16, 1.000000000000000000 ) ) ;
#234 = PERSON_AND_ORGANIZATION_ROLE ( 'classification_officer' ) ;
#235 = DIRECTION ( 'NONE',  ( 0.0000000000000000000, -1.000000000000000000, 0.0000000000000000000 ) ) ;
#236 = APPROVAL_PERSON_ORGANIZATION ( #44, #210, #228 ) ;
#237 = DATE_AND_TIME ( #120, #116 ) ;
#238 = DIRECTION ( 'NONE',  ( 3.491481338843133355E-15, -1.224646799147353207E-16, 1.000000000000000000 ) ) ;
#239 = FACE_OUTER_BOUND ( 'NONE', #280, .T. ) ;
#240 = FACE_OUTER_BOUND ( 'NONE', #75, .T. ) ;
#241 = APPROVAL_STATUS ( 'not_yet_approved' ) ;
#242 = DIRECTION ( 'NONE',  ( -3.491481338843133355E-15, 1.224646799147353207E-16, -1.000000000000000000 ) ) ;
#243 = EDGE_LOOP ( 'NONE', ( #255 ) ) ;
#244 = DATE_TIME_ROLE ( 'creation_date' ) ;
#245 = ADVANCED_FACE ( 'NONE', ( #268, #28 ), #5, .T. ) ;
#246 = CARTESIAN_POINT ( 'NONE',  ( 1.047444401652940007E-13, 0.5999999999999963141, 30.00000000000000000 ) ) ;
#247 = SECURITY_CLASSIFICATION ( '', '', #259 ) ;
#248 = PRODUCT ( '62348', '62348', '', ( #206 ) ) ;
#249 =( NAMED_UNIT ( * ) SI_UNIT ( $, .STERADIAN. ) SOLID_ANGLE_UNIT ( ) );
#250 = MANIFOLD_SOLID_BREP ( 'Corps-Déplacer/Copier1[1]', #180 ) ;
#251 = APPROVAL_DATE_TIME ( #110, #127 ) ;
#252 = EDGE_LOOP ( 'NONE', ( #282 ) ) ;
#253 = EDGE_LOOP ( 'NONE', ( #118 ) ) ;
#254 = AXIS2_PLACEMENT_3D ( 'NONE', #190, #212, #256 ) ;
#255 = ORIENTED_EDGE ( 'NONE', *, *, #185, .T. ) ;
#256 = DIRECTION ( 'NONE',  ( 4.275831445896958607E-31, 1.000000000000000000, 1.224646799147353207E-16 ) ) ;
#257 = DESIGN_CONTEXT ( 'detailed design', #283, 'design' ) ;
#258 = FACE_BOUND ( 'NONE', #74, .T. ) ;
#259 = SECURITY_CLASSIFICATION_LEVEL ( 'unclassified' ) ;
#260 = CONICAL_SURFACE ( 'NONE', #173, 0.7499999999999972244, 0.2617993877991428575 ) ;
#261 = FACE_BOUND ( 'NONE', #163, .T. ) ;
#262 = DIRECTION ( 'NONE',  ( -3.491481338843133355E-15, 1.224646799147353207E-16, -1.000000000000000000 ) ) ;
#263 = CARTESIAN_POINT ( 'NONE',  ( 2.164718430082742680E-14, 0.6179999999999993276, 6.200000000000000178 ) ) ;
#264 = COORDINATED_UNIVERSAL_TIME_OFFSET ( 1, 0, .AHEAD. ) ;
#265 = DIRECTION ( 'NONE',  ( 0.0000000000000000000, 1.000000000000000000, 0.0000000000000000000 ) ) ;
#266 = CIRCLE ( 'NONE', #216, 0.6179999999999994387 ) ;
#267 = ORIENTED_EDGE ( 'NONE', *, *, #174, .F. ) ;
#268 = FACE_OUTER_BOUND ( 'NONE', #187, .T. ) ;
#269 = ADVANCED_FACE ( 'NONE', ( #86 ), #178, .F. ) ;
#270 = DATE_AND_TIME ( #203, #201 ) ;
#271 = CARTESIAN_POINT ( 'NONE',  ( 1.042207179644675275E-13, 0.7499999999999962252, 29.84999999999999787 ) ) ;
#272 = LOCAL_TIME ( 11, 16, 22.00000000000000000, #264 ) ;
#273 = EDGE_LOOP ( 'NONE', ( #267 ) ) ;
#274 = AXIS2_PLACEMENT_3D ( 'NONE', #83, #195, #277 ) ;
#275 = ADVANCED_FACE ( 'NONE', ( #240 ), #43, .F. ) ;
#276 = UNCERTAINTY_MEASURE_WITH_UNIT (LENGTH_MEASURE( 1.000000000000000082E-05 ), #151, 'distance_accuracy_value', 'NONE');
#277 = DIRECTION ( 'NONE',  ( 0.0000000000000000000, 1.000000000000000000, 0.0000000000000000000 ) ) ;
#278 = EDGE_CURVE ( 'NONE', #8, #8, #211, .T. ) ;
#279 = DIRECTION ( 'NONE',  ( 0.0000000000000000000, 1.000000000000000000, 0.0000000000000000000 ) ) ;
#280 = EDGE_LOOP ( 'NONE', ( #114 ) ) ;
#281 = DIRECTION ( 'NONE',  ( 4.275831445896958607E-31, 1.000000000000000000, 1.224646799147353207E-16 ) ) ;
#282 = ORIENTED_EDGE ( 'NONE', *, *, #185, .F. ) ;
#283 = APPLICATION_CONTEXT ( 'configuration controlled 3d designs of mechanical parts and assemblies' ) ;
ENDSEC;
END-ISO-10303-21;
