ISO-10303-21;
HEADER;
FILE_DESCRIPTION (( 'STEP AP203' ),
    '1' );
FILE_NAME ('62346.step',
    '2021-12-16T11:55:58',
    ( '' ),
    ( '' ),
    'SwSTEP 2.0',
    'SolidWorks 2019',
    '' );
FILE_SCHEMA (( 'CONFIG_CONTROL_DESIGN' ));
ENDSEC;

DATA;
#1 = FACE_OUTER_BOUND ( 'NONE', #232, .T. ) ;
#2 = PERSON_AND_ORGANIZATION_ROLE ( 'design_owner' ) ;
#3 = ORIENTED_EDGE ( 'NONE', *, *, #217, .T. ) ;
#4 = DATE_AND_TIME ( #28, #49 ) ;
#5 = EDGE_LOOP ( 'NONE', ( #65 ) ) ;
#6 = DATE_TIME_ROLE ( 'creation_date' ) ;
#7 = SHAPE_DEFINITION_REPRESENTATION ( #185, #139 ) ;
#8 = VERTEX_POINT ( 'NONE', #9 ) ;
#9 = CARTESIAN_POINT ( 'NONE',  ( 1.396592535537253342E-14, 0.5179999999999997939, 4.000000000000000000 ) ) ;
#10 = DIRECTION ( 'NONE',  ( 4.275831445896958607E-31, 1.000000000000000000, 1.224646799147353207E-16 ) ) ;
#11 = ADVANCED_FACE ( 'NONE', ( #196, #84 ), #140, .T. ) ;
#12 = APPROVAL ( #126, 'UNSPECIFIED' ) ;
#13 = EDGE_LOOP ( 'NONE', ( #3 ) ) ;
#14 = CARTESIAN_POINT ( 'NONE',  ( 2.140858357530951808E-14, 0.7499999999999963363, 6.131662036149686301 ) ) ;
#15 = CIRCLE ( 'NONE', #122, 0.7499999999999971134 ) ;
#16 = DIRECTION ( 'NONE',  ( -3.491481338843133355E-15, 1.224646799147353207E-16, -1.000000000000000000 ) ) ;
#17 = ORIENTED_EDGE ( 'NONE', *, *, #53, .F. ) ;
#18 =( LENGTH_UNIT ( ) NAMED_UNIT ( * ) SI_UNIT ( .MILLI., .METRE. ) );
#19 = PLANE ( 'NONE',  #51 ) ;
#20 = CALENDAR_DATE ( 2021, 16, 12 ) ;
#21 = AXIS2_PLACEMENT_3D ( 'NONE', #87, #243, #29 ) ;
#22 = CARTESIAN_POINT ( 'NONE',  ( 2.140858357530951808E-14, -7.509120286024055423E-16, 6.131662036149686301 ) ) ;
#23 = DATE_TIME_ROLE ( 'classification_date' ) ;
#24 = EDGE_LOOP ( 'NONE', ( #40 ) ) ;
#25 =( GEOMETRIC_REPRESENTATION_CONTEXT ( 3 ) GLOBAL_UNCERTAINTY_ASSIGNED_CONTEXT ( ( #135 ) ) GLOBAL_UNIT_ASSIGNED_CONTEXT ( ( #18, #242, #42 ) ) REPRESENTATION_CONTEXT ( 'NONE', 'WORKASPACE' ) );
#26 = EDGE_CURVE ( 'NONE', #207, #207, #94, .T. ) ;
#27 = DIRECTION ( 'NONE',  ( -3.491481338843133355E-15, 1.224646799147353207E-16, -1.000000000000000000 ) ) ;
#28 = CALENDAR_DATE ( 2021, 16, 12 ) ;
#29 = DIRECTION ( 'NONE',  ( 0.0000000000000000000, 1.000000000000000000, 0.0000000000000000000 ) ) ;
#30 = AXIS2_PLACEMENT_3D ( 'NONE', #176, #130, #219 ) ;
#31 = APPROVAL_STATUS ( 'not_yet_approved' ) ;
#32 = DESIGN_CONTEXT ( 'detailed design', #137, 'design' ) ;
#33 = AXIS2_PLACEMENT_3D ( 'NONE', #111, #222, #177 ) ;
#34 = FACE_OUTER_BOUND ( 'NONE', #47, .T. ) ;
#35 = CYLINDRICAL_SURFACE ( 'NONE', #100, 0.7499999999999984457 ) ;
#36 = CC_DESIGN_DATE_AND_TIME_ASSIGNMENT ( #240, #23, ( #107 ) ) ;
#37 = DIRECTION ( 'NONE',  ( -3.491481338843133355E-15, 1.224646799147353207E-16, -1.000000000000000000 ) ) ;
#38 = CARTESIAN_POINT ( 'NONE',  ( 0.0000000000000000000, 0.0000000000000000000, 0.0000000000000000000 ) ) ;
#39 = CARTESIAN_POINT ( 'NONE',  ( 1.815570296198429345E-14, 0.5179999999999997939, 5.200000000000000178 ) ) ;
#40 = ORIENTED_EDGE ( 'NONE', *, *, #67, .T. ) ;
#41 = ORIENTED_EDGE ( 'NONE', *, *, #256, .T. ) ;
#42 =( NAMED_UNIT ( * ) SI_UNIT ( $, .STERADIAN. ) SOLID_ANGLE_UNIT ( ) );
#43 = ORIENTED_EDGE ( 'NONE', *, *, #142, .T. ) ;
#44 = CARTESIAN_POINT ( 'NONE',  ( 1.860753389504060636E-14, 0.5350370868554648052, 5.329409522551256551 ) ) ;
#45 = ADVANCED_FACE ( 'NONE', ( #214 ), #19, .F. ) ;
#46 = CC_DESIGN_PERSON_AND_ORGANIZATION_ASSIGNMENT ( #88, #86, ( #218 ) ) ;
#47 = EDGE_LOOP ( 'NONE', ( #123 ) ) ;
#48 = COORDINATED_UNIVERSAL_TIME_OFFSET ( 1, 0, .AHEAD. ) ;
#49 = LOCAL_TIME ( 12, 55, 58.00000000000000000, #238 ) ;
#50 = PLANE ( 'NONE',  #203 ) ;
#51 = AXIS2_PLACEMENT_3D ( 'NONE', #61, #132, #265 ) ;
#52 = AXIS2_PLACEMENT_3D ( 'NONE', #54, #260, #144 ) ;
#53 = EDGE_CURVE ( 'NONE', #8, #8, #190, .T. ) ;
#54 = CARTESIAN_POINT ( 'NONE',  ( 2.645168307299027682E-15, -9.278001473761615899E-17, 0.7576063139365016852 ) ) ;
#55 = CARTESIAN_POINT ( 'NONE',  ( 1.396592535537253342E-14, 0.5179999999999997939, 4.000000000000000000 ) ) ;
#56 = AXIS2_PLACEMENT_3D ( 'NONE', #121, #101, #119 ) ;
#57 = DIRECTION ( 'NONE',  ( 4.275831445896958607E-31, 1.000000000000000000, 1.224646799147353454E-16 ) ) ;
#58 = CARTESIAN_POINT ( 'NONE',  ( 1.396592535537253342E-14, 3.884377837094207126E-33, 4.000000000000000000 ) ) ;
#59 = FACE_OUTER_BOUND ( 'NONE', #158, .T. ) ;
#60 = AXIS2_PLACEMENT_3D ( 'NONE', #90, #199, #182 ) ;
#61 = CARTESIAN_POINT ( 'NONE',  ( 1.396592535537253342E-14, 3.884377837094207126E-33, 4.000000000000000000 ) ) ;
#62 = ORIENTED_EDGE ( 'NONE', *, *, #227, .T. ) ;
#63 = COORDINATED_UNIVERSAL_TIME_OFFSET ( 1, 0, .AHEAD. ) ;
#64 = ADVANCED_FACE ( 'NONE', ( #108, #147 ), #208, .T. ) ;
#65 = ORIENTED_EDGE ( 'NONE', *, *, #217, .F. ) ;
#66 = PERSON_AND_ORGANIZATION ( #161, #257 ) ;
#67 = EDGE_CURVE ( 'NONE', #95, #95, #186, .T. ) ;
#68 = FACE_OUTER_BOUND ( 'NONE', #237, .T. ) ;
#69 = CYLINDRICAL_SURFACE ( 'NONE', #60, 0.5180000000000001270 ) ;
#70 = DATE_AND_TIME ( #20, #73 ) ;
#71 = APPROVAL_PERSON_ORGANIZATION ( #283, #12, #183 ) ;
#72 = AXIS2_PLACEMENT_3D ( 'NONE', #117, #211, #99 ) ;
#73 = LOCAL_TIME ( 12, 55, 58.00000000000000000, #266 ) ;
#74 = ADVANCED_FACE ( 'NONE', ( #68, #154 ), #69, .T. ) ;
#75 = APPLICATION_CONTEXT ( 'configuration controlled 3d designs of mechanical parts and assemblies' ) ;
#76 = EDGE_LOOP ( 'NONE', ( #261 ) ) ;
#77 = CARTESIAN_POINT ( 'NONE',  ( 1.815570296198429345E-14, -6.505213034913026604E-16, 5.200000000000000178 ) ) ;
#78 = CARTESIAN_POINT ( 'NONE',  ( 2.140858357530951808E-14, -7.509120286024055423E-16, 6.131662036149686301 ) ) ;
#79 = ORIENTED_EDGE ( 'NONE', *, *, #227, .F. ) ;
#80 = DIRECTION ( 'NONE',  ( -3.491481338843133355E-15, 1.224646799147353207E-16, -1.000000000000000000 ) ) ;
#81 = CIRCLE ( 'NONE', #247, 0.3150000000000000022 ) ;
#82 = DIRECTION ( 'NONE',  ( 0.0000000000000000000, 1.000000000000000000, 0.0000000000000000000 ) ) ;
#83 = DIRECTION ( 'NONE',  ( -3.491481338843133355E-15, 1.224646799147353207E-16, -1.000000000000000000 ) ) ;
#84 = FACE_BOUND ( 'NONE', #85, .T. ) ;
#85 = EDGE_LOOP ( 'NONE', ( #62 ) ) ;
#86 = PERSON_AND_ORGANIZATION_ROLE ( 'creator' ) ;
#87 = CARTESIAN_POINT ( 'NONE',  ( 1.815570296198429345E-14, -6.368163355566236381E-16, 5.200000000000000178 ) ) ;
#88 = PERSON_AND_ORGANIZATION ( #161, #257 ) ;
#89 = PRODUCT_RELATED_PRODUCT_CATEGORY ( 'detail', '', ( #225 ) ) ;
#90 = CARTESIAN_POINT ( 'NONE',  ( 0.0000000000000000000, 0.0000000000000000000, 0.0000000000000000000 ) ) ;
#91 = APPLICATION_PROTOCOL_DEFINITION ( 'international standard', 'config_control_design', 1994, #75 ) ;
#92 = ADVANCED_FACE ( 'NONE', ( #1 ), #50, .F. ) ;
#93 = CC_DESIGN_PERSON_AND_ORGANIZATION_ASSIGNMENT ( #246, #124, ( #244 ) ) ;
#94 = CIRCLE ( 'NONE', #21, 0.5180000000000004601 ) ;
#95 = VERTEX_POINT ( 'NONE', #188 ) ;
#96 = DIRECTION ( 'NONE',  ( -3.491481338843133355E-15, 1.224646799147353207E-16, -1.000000000000000000 ) ) ;
#97 = CARTESIAN_POINT ( 'NONE',  ( 1.860753389504060636E-14, -6.526644313137820962E-16, 5.329409522551256551 ) ) ;
#98 = ORIENTED_EDGE ( 'NONE', *, *, #26, .T. ) ;
#99 = DIRECTION ( 'NONE',  ( 0.0000000000000000000, 1.000000000000000000, 0.0000000000000000000 ) ) ;
#100 = AXIS2_PLACEMENT_3D ( 'NONE', #38, #16, #57 ) ;
#101 = DIRECTION ( 'NONE',  ( -3.491481338843133355E-15, 1.224646799147353207E-16, -1.000000000000000000 ) ) ;
#102 = PERSON_AND_ORGANIZATION ( #161, #257 ) ;
#103 = EDGE_LOOP ( 'NONE', ( #17 ) ) ;
#104 = PERSON_AND_ORGANIZATION_ROLE ( 'design_supplier' ) ;
#105 = DIRECTION ( 'NONE',  ( 0.0000000000000000000, 1.000000000000000000, 0.0000000000000000000 ) ) ;
#106 = PERSON_AND_ORGANIZATION ( #161, #257 ) ;
#107 = SECURITY_CLASSIFICATION ( '', '', #197 ) ;
#108 = FACE_BOUND ( 'NONE', #148, .T. ) ;
#109 = MECHANICAL_CONTEXT ( 'NONE', #75, 'mechanical' ) ;
#110 = DIRECTION ( 'NONE',  ( 0.0000000000000000000, -1.000000000000000000, 0.0000000000000000000 ) ) ;
#111 = CARTESIAN_POINT ( 'NONE',  ( 0.0000000000000000000, 0.0000000000000000000, 0.0000000000000000000 ) ) ;
#112 = LOCAL_TIME ( 12, 55, 58.00000000000000000, #164 ) ;
#113 = EDGE_CURVE ( 'NONE', #231, #231, #81, .T. ) ;
#114 = AXIS2_PLACEMENT_3D ( 'NONE', #22, #282, #110 ) ;
#115 = APPROVAL ( #151, 'UNSPECIFIED' ) ;
#116 = TOROIDAL_SURFACE ( 'NONE', #280, 1.018000000000000460, 0.5000000000000000000 ) ;
#117 = CARTESIAN_POINT ( 'NONE',  ( 1.047444401652940007E-13, -3.673940397442059178E-15, 30.00000000000000000 ) ) ;
#118 = FACE_OUTER_BOUND ( 'NONE', #24, .T. ) ;
#119 = DIRECTION ( 'NONE',  ( 4.275831445896958607E-31, 1.000000000000000000, 1.224646799147353207E-16 ) ) ;
#120 = EDGE_CURVE ( 'NONE', #253, #253, #269, .T. ) ;
#121 = CARTESIAN_POINT ( 'NONE',  ( 0.0000000000000000000, 0.0000000000000000000, 0.0000000000000000000 ) ) ;
#122 = AXIS2_PLACEMENT_3D ( 'NONE', #78, #96, #228 ) ;
#123 = ORIENTED_EDGE ( 'NONE', *, *, #120, .F. ) ;
#124 = PERSON_AND_ORGANIZATION_ROLE ( 'creator' ) ;
#125 = ORIENTED_EDGE ( 'NONE', *, *, #256, .F. ) ;
#126 = APPROVAL_STATUS ( 'not_yet_approved' ) ;
#127 = DIRECTION ( 'NONE',  ( 0.0000000000000000000, 1.000000000000000000, 0.0000000000000000000 ) ) ;
#128 = APPLICATION_PROTOCOL_DEFINITION ( 'international standard', 'config_control_design', 1994, #137 ) ;
#129 = AXIS2_PLACEMENT_3D ( 'NONE', #202, #198, #127 ) ;
#130 = DIRECTION ( 'NONE',  ( -3.491481338843133355E-15, 1.224646799147353207E-16, -1.000000000000000000 ) ) ;
#131 = APPROVAL_PERSON_ORGANIZATION ( #155, #115, #173 ) ;
#132 = DIRECTION ( 'NONE',  ( 3.491481338843133355E-15, -1.224646799147353207E-16, 1.000000000000000000 ) ) ;
#133 = DATE_AND_TIME ( #220, #193 ) ;
#134 = CARTESIAN_POINT ( 'NONE',  ( 1.047444401652940007E-13, 4.499279347985518085E-33, 30.00000000000000000 ) ) ;
#135 = UNCERTAINTY_MEASURE_WITH_UNIT (LENGTH_MEASURE( 1.000000000000000082E-05 ), #18, 'distance_accuracy_value', 'NONE');
#136 = AXIS2_PLACEMENT_3D ( 'NONE', #166, #37, #212 ) ;
#137 = APPLICATION_CONTEXT ( 'configuration controlled 3d designs of mechanical parts and assemblies' ) ;
#138 = FACE_OUTER_BOUND ( 'NONE', #5, .T. ) ;
#139 = ADVANCED_BREP_SHAPE_REPRESENTATION ( '62346', ( #248, #250, #33 ), #25 ) ;
#140 = CONICAL_SURFACE ( 'NONE', #129, 0.6000000000000000888, 0.7853981633974450594 ) ;
#141 = VERTEX_POINT ( 'NONE', #229 ) ;
#142 = EDGE_CURVE ( 'NONE', #141, #141, #274, .T. ) ;
#143 = DIRECTION ( 'NONE',  ( 0.0000000000000000000, 1.000000000000000000, 0.0000000000000000000 ) ) ;
#144 = DIRECTION ( 'NONE',  ( -7.436022951302070574E-31, -1.000000000000000000, -2.093054387037653810E-16 ) ) ;
#145 = EDGE_LOOP ( 'NONE', ( #234 ) ) ;
#146 = DIRECTION ( 'NONE',  ( 3.491481338843133355E-15, -1.224646799147353207E-16, 1.000000000000000000 ) ) ;
#147 = FACE_OUTER_BOUND ( 'NONE', #13, .T. ) ;
#148 = EDGE_LOOP ( 'NONE', ( #125 ) ) ;
#149 = CALENDAR_DATE ( 2021, 16, 12 ) ;
#150 = ORIENTED_EDGE ( 'NONE', *, *, #26, .F. ) ;
#151 = APPROVAL_STATUS ( 'not_yet_approved' ) ;
#152 = AXIS2_PLACEMENT_3D ( 'NONE', #58, #165, #233 ) ;
#153 = CIRCLE ( 'NONE', #184, 0.5350370868554654713 ) ;
#154 = FACE_OUTER_BOUND ( 'NONE', #172, .T. ) ;
#155 = PERSON_AND_ORGANIZATION ( #161, #257 ) ;
#156 = ADVANCED_FACE ( 'NONE', ( #275, #171 ), #116, .F. ) ;
#157 = CC_DESIGN_PERSON_AND_ORGANIZATION_ASSIGNMENT ( #66, #2, ( #225 ) ) ;
#158 = EDGE_LOOP ( 'NONE', ( #98 ) ) ;
#159 = APPROVAL_DATE_TIME ( #70, #12 ) ;
#160 = APPROVAL_ROLE ( '' ) ;
#161 = PERSON ( 'UNSPECIFIED', 'UNSPECIFIED', 'UNSPECIFIED', ('UNSPECIFIED'), ('UNSPECIFIED'), ('UNSPECIFIED') ) ;
#162 = APPROVAL_DATE_TIME ( #206, #249 ) ;
#163 = CIRCLE ( 'NONE', #72, 0.6000000000000000888 ) ;
#164 = COORDINATED_UNIVERSAL_TIME_OFFSET ( 1, 0, .AHEAD. ) ;
#165 = DIRECTION ( 'NONE',  ( 3.491481338843133355E-15, -1.224646799147353207E-16, 1.000000000000000000 ) ) ;
#166 = CARTESIAN_POINT ( 'NONE',  ( 1.396592535537253342E-14, -4.898587196589412829E-16, 4.000000000000000000 ) ) ;
#167 = ADVANCED_FACE ( 'NONE', ( #272 ), #170, .T. ) ;
#168 = CLOSED_SHELL ( 'NONE', ( #45, #226, #156, #64, #178, #11, #92 ) ) ;
#169 = CARTESIAN_POINT ( 'NONE',  ( 1.042207179644675275E-13, -3.655570695454848748E-15, 29.84999999999999787 ) ) ;
#170 = PLANE ( 'NONE',  #152 ) ;
#171 = FACE_OUTER_BOUND ( 'NONE', #210, .T. ) ;
#172 = EDGE_LOOP ( 'NONE', ( #221 ) ) ;
#173 = APPROVAL_ROLE ( '' ) ;
#174 = DIRECTION ( 'NONE',  ( 4.275831445896958607E-31, 1.000000000000000000, 1.224646799147353207E-16 ) ) ;
#175 = PERSON_AND_ORGANIZATION ( #161, #257 ) ;
#176 = CARTESIAN_POINT ( 'NONE',  ( 2.645168307299027682E-15, -9.278001473761615899E-17, 0.7576063139365016852 ) ) ;
#177 = DIRECTION ( 'NONE',  ( 1.000000000000000000, 0.0000000000000000000, 0.0000000000000000000 ) ) ;
#178 = ADVANCED_FACE ( 'NONE', ( #138, #252 ), #35, .T. ) ;
#179 = EDGE_LOOP ( 'NONE', ( #279 ) ) ;
#180 = CONICAL_SURFACE ( 'NONE', #52, 0.5179999999999999050, 0.2617993877991428575 ) ;
#181 = CC_DESIGN_PERSON_AND_ORGANIZATION_ASSIGNMENT ( #102, #104, ( #244 ) ) ;
#182 = DIRECTION ( 'NONE',  ( 4.275831445896958607E-31, 1.000000000000000000, 1.224646799147352961E-16 ) ) ;
#183 = APPROVAL_ROLE ( '' ) ;
#184 = AXIS2_PLACEMENT_3D ( 'NONE', #97, #80, #143 ) ;
#185 = PRODUCT_DEFINITION_SHAPE ( 'NONE', 'NONE',  #218 ) ;
#186 = CIRCLE ( 'NONE', #30, 0.5179999999999999050 ) ;
#187 = CARTESIAN_POINT ( 'NONE',  ( 9.463679131915805687E-32, 0.3150000000000000022, 2.710505431213761085E-17 ) ) ;
#188 = CARTESIAN_POINT ( 'NONE',  ( 2.645168307299028076E-15, 0.5179999999999997939, 0.7576063139365017962 ) ) ;
#189 = VERTEX_POINT ( 'NONE', #14 ) ;
#190 = CIRCLE ( 'NONE', #251, 0.5180000000000003491 ) ;
#191 = DIRECTION ( 'NONE',  ( 4.275831445896958607E-31, 1.000000000000000000, 1.224646799147353207E-16 ) ) ;
#192 = FACE_OUTER_BOUND ( 'NONE', #239, .T. ) ;
#193 = LOCAL_TIME ( 12, 55, 58.00000000000000000, #48 ) ;
#194 = EDGE_LOOP ( 'NONE', ( #43 ) ) ;
#195 = CARTESIAN_POINT ( 'NONE',  ( 1.047444401652940007E-13, 0.5999999999999963141, 30.00000000000000000 ) ) ;
#196 = FACE_OUTER_BOUND ( 'NONE', #76, .T. ) ;
#197 = SECURITY_CLASSIFICATION_LEVEL ( 'unclassified' ) ;
#198 = DIRECTION ( 'NONE',  ( -3.491481338843133355E-15, 1.224646799147353207E-16, -1.000000000000000000 ) ) ;
#199 = DIRECTION ( 'NONE',  ( -3.491481338843133355E-15, 1.224646799147353207E-16, -1.000000000000000000 ) ) ;
#200 = VERTEX_POINT ( 'NONE', #44 ) ;
#201 = CC_DESIGN_PERSON_AND_ORGANIZATION_ASSIGNMENT ( #175, #263, ( #107 ) ) ;
#202 = CARTESIAN_POINT ( 'NONE',  ( 1.047444401652940007E-13, -3.673940397442059178E-15, 30.00000000000000000 ) ) ;
#203 = AXIS2_PLACEMENT_3D ( 'NONE', #134, #223, #174 ) ;
#204 = ADVANCED_FACE ( 'NONE', ( #270, #118 ), #180, .T. ) ;
#205 = CC_DESIGN_APPROVAL ( #115, ( #218 ) ) ;
#206 = DATE_AND_TIME ( #267, #112 ) ;
#207 = VERTEX_POINT ( 'NONE', #39 ) ;
#208 = CONICAL_SURFACE ( 'NONE', #114, 0.7499999999999971134, 0.2617993877991427465 ) ;
#209 = PLANE ( 'NONE',  #277 ) ;
#210 = EDGE_LOOP ( 'NONE', ( #41 ) ) ;
#211 = DIRECTION ( 'NONE',  ( -3.491481338843133355E-15, 1.224646799147353207E-16, -1.000000000000000000 ) ) ;
#212 = DIRECTION ( 'NONE',  ( 0.0000000000000000000, 1.000000000000000000, 0.0000000000000000000 ) ) ;
#213 = VERTEX_POINT ( 'NONE', #195 ) ;
#214 = FACE_OUTER_BOUND ( 'NONE', #179, .T. ) ;
#215 = CARTESIAN_POINT ( 'NONE',  ( 1.396592535537253342E-14, -4.898587196589412829E-16, 4.000000000000000000 ) ) ;
#216 = APPROVAL_DATE_TIME ( #4, #115 ) ;
#217 = EDGE_CURVE ( 'NONE', #189, #189, #15, .T. ) ;
#218 = PRODUCT_DEFINITION ( 'UNKNOWN', '', #244, #32 ) ;
#219 = DIRECTION ( 'NONE',  ( 7.436022951302070574E-31, 1.000000000000000000, 2.093054387037653810E-16 ) ) ;
#220 = CALENDAR_DATE ( 2021, 16, 12 ) ;
#221 = ORIENTED_EDGE ( 'NONE', *, *, #53, .T. ) ;
#222 = DIRECTION ( 'NONE',  ( 0.0000000000000000000, 0.0000000000000000000, 1.000000000000000000 ) ) ;
#223 = DIRECTION ( 'NONE',  ( -3.491481338843133355E-15, 1.224646799147353207E-16, -1.000000000000000000 ) ) ;
#224 = CC_DESIGN_APPROVAL ( #249, ( #107 ) ) ;
#225 = PRODUCT ( '62346', '62346', '', ( #109 ) ) ;
#226 = ADVANCED_FACE ( 'NONE', ( #34, #59 ), #258, .T. ) ;
#227 = EDGE_CURVE ( 'NONE', #213, #213, #163, .T. ) ;
#228 = DIRECTION ( 'NONE',  ( 0.0000000000000000000, 1.000000000000000000, 0.0000000000000000000 ) ) ;
#229 = CARTESIAN_POINT ( 'NONE',  ( 1.042207179644675275E-13, 0.7499999999999962252, 29.84999999999999787 ) ) ;
#230 = CC_DESIGN_APPROVAL ( #12, ( #244 ) ) ;
#231 = VERTEX_POINT ( 'NONE', #187 ) ;
#232 = EDGE_LOOP ( 'NONE', ( #79 ) ) ;
#233 = DIRECTION ( 'NONE',  ( -4.275831445896958607E-31, -1.000000000000000000, -1.224646799147353207E-16 ) ) ;
#234 = ORIENTED_EDGE ( 'NONE', *, *, #113, .F. ) ;
#235 = DIRECTION ( 'NONE',  ( -4.275831445896958607E-31, -1.000000000000000000, -1.224646799147353207E-16 ) ) ;
#236 = APPROVAL_PERSON_ORGANIZATION ( #106, #249, #160 ) ;
#237 = EDGE_LOOP ( 'NONE', ( #264 ) ) ;
#238 = COORDINATED_UNIVERSAL_TIME_OFFSET ( 1, 0, .AHEAD. ) ;
#239 = EDGE_LOOP ( 'NONE', ( #241 ) ) ;
#240 = DATE_AND_TIME ( #149, #268 ) ;
#241 = ORIENTED_EDGE ( 'NONE', *, *, #113, .T. ) ;
#242 =( NAMED_UNIT ( * ) PLANE_ANGLE_UNIT ( ) SI_UNIT ( $, .RADIAN. ) );
#243 = DIRECTION ( 'NONE',  ( -3.491481338843133355E-15, 1.224646799147353207E-16, -1.000000000000000000 ) ) ;
#244 = PRODUCT_DEFINITION_FORMATION_WITH_SPECIFIED_SOURCE ( 'ANY', '', #225, .NOT_KNOWN. ) ;
#245 = EDGE_LOOP ( 'NONE', ( #150 ) ) ;
#246 = PERSON_AND_ORGANIZATION ( #161, #257 ) ;
#247 = AXIS2_PLACEMENT_3D ( 'NONE', #262, #273, #191 ) ;
#248 = MANIFOLD_SOLID_BREP ( 'Corps-Déplacer/Copier1[1]', #168 ) ;
#249 = APPROVAL ( #31, 'UNSPECIFIED' ) ;
#250 = MANIFOLD_SOLID_BREP ( 'Corps-Déplacer/Copier1[2]', #254 ) ;
#251 = AXIS2_PLACEMENT_3D ( 'NONE', #215, #27, #105 ) ;
#252 = FACE_OUTER_BOUND ( 'NONE', #194, .T. ) ;
#253 = VERTEX_POINT ( 'NONE', #55 ) ;
#254 = CLOSED_SHELL ( 'NONE', ( #259, #204, #74, #167 ) ) ;
#255 = CARTESIAN_POINT ( 'NONE',  ( -2.002594961329806765E-32, 7.024157574887016367E-34, -5.735659930502009560E-18 ) ) ;
#256 = EDGE_CURVE ( 'NONE', #200, #200, #153, .T. ) ;
#257 = ORGANIZATION ( 'UNSPECIFIED', 'UNSPECIFIED', '' ) ;
#258 = CYLINDRICAL_SURFACE ( 'NONE', #56, 0.5180000000000004601 ) ;
#259 = ADVANCED_FACE ( 'NONE', ( #192 ), #209, .F. ) ;
#260 = DIRECTION ( 'NONE',  ( 3.491481338843133355E-15, -1.224646799147353207E-16, 1.000000000000000000 ) ) ;
#261 = ORIENTED_EDGE ( 'NONE', *, *, #142, .F. ) ;
#262 = CARTESIAN_POINT ( 'NONE',  ( -4.005189922659613529E-32, 1.404831514977403273E-33, -1.147131986100401912E-17 ) ) ;
#263 = PERSON_AND_ORGANIZATION_ROLE ( 'classification_officer' ) ;
#264 = ORIENTED_EDGE ( 'NONE', *, *, #67, .F. ) ;
#265 = DIRECTION ( 'NONE',  ( -4.275831445896958607E-31, -1.000000000000000000, -1.224646799147353207E-16 ) ) ;
#266 = COORDINATED_UNIVERSAL_TIME_OFFSET ( 1, 0, .AHEAD. ) ;
#267 = CALENDAR_DATE ( 2021, 16, 12 ) ;
#268 = LOCAL_TIME ( 12, 55, 58.00000000000000000, #63 ) ;
#269 = CIRCLE ( 'NONE', #136, 0.5180000000000003491 ) ;
#270 = FACE_BOUND ( 'NONE', #145, .T. ) ;
#271 = CC_DESIGN_SECURITY_CLASSIFICATION ( #107, ( #244 ) ) ;
#272 = FACE_OUTER_BOUND ( 'NONE', #103, .T. ) ;
#273 = DIRECTION ( 'NONE',  ( -3.491481338843133355E-15, 1.224646799147353207E-16, -1.000000000000000000 ) ) ;
#274 = CIRCLE ( 'NONE', #281, 0.7499999999999998890 ) ;
#275 = FACE_OUTER_BOUND ( 'NONE', #245, .T. ) ;
#276 = CC_DESIGN_DATE_AND_TIME_ASSIGNMENT ( #133, #6, ( #218 ) ) ;
#277 = AXIS2_PLACEMENT_3D ( 'NONE', #255, #146, #235 ) ;
#278 = DIRECTION ( 'NONE',  ( -3.491481338843133355E-15, 1.224646799147353207E-16, -1.000000000000000000 ) ) ;
#279 = ORIENTED_EDGE ( 'NONE', *, *, #120, .T. ) ;
#280 = AXIS2_PLACEMENT_3D ( 'NONE', #77, #83, #10 ) ;
#281 = AXIS2_PLACEMENT_3D ( 'NONE', #169, #278, #82 ) ;
#282 = DIRECTION ( 'NONE',  ( 3.491481338843133355E-15, -1.224646799147353207E-16, 1.000000000000000000 ) ) ;
#283 = PERSON_AND_ORGANIZATION ( #161, #257 ) ;
ENDSEC;
END-ISO-10303-21;
