ISO-10303-21;
HEADER;
FILE_DESCRIPTION (( 'STEP AP203' ),
    '1' );
FILE_NAME ('62343.step',
    '2021-12-16T11:55:58',
    ( '' ),
    ( '' ),
    'SwSTEP 2.0',
    'SolidWorks 2019',
    '' );
FILE_SCHEMA (( 'CONFIG_CONTROL_DESIGN' ));
ENDSEC;

DATA;
#1 = CARTESIAN_POINT ( 'NONE',  ( 0.0000000000000000000, 0.0000000000000000000, 0.0000000000000000000 ) ) ;
#2 = FACE_OUTER_BOUND ( 'NONE', #271, .T. ) ;
#3 = CARTESIAN_POINT ( 'NONE',  ( 1.396592535537253342E-14, 0.4659999999999994147, 4.000000000000000000 ) ) ;
#4 = EDGE_LOOP ( 'NONE', ( #182 ) ) ;
#5 = CC_DESIGN_SECURITY_CLASSIFICATION ( #22, ( #20 ) ) ;
#6 = ADVANCED_FACE ( 'NONE', ( #246, #48 ), #148, .F. ) ;
#7 = CARTESIAN_POINT ( 'NONE',  ( 1.396592535537253342E-14, -4.898587196589412829E-16, 4.000000000000000000 ) ) ;
#8 = DIRECTION ( 'NONE',  ( -4.275831445896958607E-31, -1.000000000000000000, -1.224646799147353207E-16 ) ) ;
#9 = CARTESIAN_POINT ( 'NONE',  ( 1.396592535537253342E-14, 3.494440293602119660E-33, 4.000000000000000000 ) ) ;
#10 = CONICAL_SURFACE ( 'NONE', #95, 0.4659999999999995257, 0.2617993877991428020 ) ;
#11 =( NAMED_UNIT ( * ) SI_UNIT ( $, .STERADIAN. ) SOLID_ANGLE_UNIT ( ) );
#12 = CYLINDRICAL_SURFACE ( 'NONE', #257, 0.7499999999999984457 ) ;
#13 = APPROVAL_PERSON_ORGANIZATION ( #61, #166, #17 ) ;
#14 = APPROVAL_STATUS ( 'not_yet_approved' ) ;
#15 = COORDINATED_UNIVERSAL_TIME_OFFSET ( 1, 0, .AHEAD. ) ;
#16 = ADVANCED_FACE ( 'NONE', ( #232 ), #119, .F. ) ;
#17 = APPROVAL_ROLE ( '' ) ;
#18 = AXIS2_PLACEMENT_3D ( 'NONE', #278, #141, #81 ) ;
#19 = APPROVAL_STATUS ( 'not_yet_approved' ) ;
#20 = PRODUCT_DEFINITION_FORMATION_WITH_SPECIFIED_SOURCE ( 'ANY', '', #144, .NOT_KNOWN. ) ;
#21 = CARTESIAN_POINT ( 'NONE',  ( 2.358499820793710031E-15, -8.272503777097778492E-17, 0.6755011961699829426 ) ) ;
#22 = SECURITY_CLASSIFICATION ( '', '', #213 ) ;
#23 = DIRECTION ( 'NONE',  ( -3.491481338843133355E-15, 1.224646799147353207E-16, -1.000000000000000000 ) ) ;
#24 = FACE_OUTER_BOUND ( 'NONE', #91, .T. ) ;
#25 =( LENGTH_UNIT ( ) NAMED_UNIT ( * ) SI_UNIT ( .MILLI., .METRE. ) );
#26 = ORIENTED_EDGE ( 'NONE', *, *, #63, .T. ) ;
#27 = CARTESIAN_POINT ( 'NONE',  ( 0.0000000000000000000, 0.0000000000000000000, 0.0000000000000000000 ) ) ;
#28 = VERTEX_POINT ( 'NONE', #176 ) ;
#29 = FACE_OUTER_BOUND ( 'NONE', #203, .T. ) ;
#30 = AXIS2_PLACEMENT_3D ( 'NONE', #265, #250, #151 ) ;
#31 = VERTEX_POINT ( 'NONE', #3 ) ;
#32 = EDGE_LOOP ( 'NONE', ( #279 ) ) ;
#33 = CARTESIAN_POINT ( 'NONE',  ( 1.815570296198429345E-14, -6.505213034913026604E-16, 5.200000000000000178 ) ) ;
#34 = COORDINATED_UNIVERSAL_TIME_OFFSET ( 1, 0, .AHEAD. ) ;
#35 = CARTESIAN_POINT ( 'NONE',  ( 2.208616363432207904E-14, -7.746783377962777177E-16, 6.325728678143273775 ) ) ;
#36 = PRODUCT_RELATED_PRODUCT_CATEGORY ( 'detail', '', ( #144 ) ) ;
#37 = CALENDAR_DATE ( 2021, 16, 12 ) ;
#38 = DATE_AND_TIME ( #58, #240 ) ;
#39 = SHAPE_DEFINITION_REPRESENTATION ( #206, #124 ) ;
#40 = LOCAL_TIME ( 12, 55, 58.00000000000000000, #34 ) ;
#41 = EDGE_LOOP ( 'NONE', ( #189 ) ) ;
#42 = UNCERTAINTY_MEASURE_WITH_UNIT (LENGTH_MEASURE( 1.000000000000000082E-05 ), #25, 'distance_accuracy_value', 'NONE');
#43 = CYLINDRICAL_SURFACE ( 'NONE', #283, 0.4659999999999999698 ) ;
#44 = PLANE ( 'NONE',  #138 ) ;
#45 = AXIS2_PLACEMENT_3D ( 'NONE', #156, #94, #264 ) ;
#46 = DIRECTION ( 'NONE',  ( 4.275831445896959482E-31, 1.000000000000000000, 1.224646799147353207E-16 ) ) ;
#47 = VERTEX_POINT ( 'NONE', #195 ) ;
#48 = FACE_OUTER_BOUND ( 'NONE', #184, .T. ) ;
#49 = ORIENTED_EDGE ( 'NONE', *, *, #172, .F. ) ;
#50 = FACE_BOUND ( 'NONE', #253, .T. ) ;
#51 = CC_DESIGN_APPROVAL ( #166, ( #22 ) ) ;
#52 = FACE_BOUND ( 'NONE', #74, .T. ) ;
#53 = EDGE_LOOP ( 'NONE', ( #247 ) ) ;
#54 = ORIENTED_EDGE ( 'NONE', *, *, #204, .F. ) ;
#55 = EDGE_CURVE ( 'NONE', #198, #198, #87, .T. ) ;
#56 = CLOSED_SHELL ( 'NONE', ( #193, #143, #6, #149, #99, #235, #210 ) ) ;
#57 = CARTESIAN_POINT ( 'NONE',  ( 2.358499820793710426E-15, 0.4659999999999994147, 0.6755011961699830536 ) ) ;
#58 = CALENDAR_DATE ( 2021, 16, 12 ) ;
#59 = DIRECTION ( 'NONE',  ( -3.491481338843133355E-15, 1.224646799147353207E-16, -1.000000000000000000 ) ) ;
#60 = APPLICATION_CONTEXT ( 'configuration controlled 3d designs of mechanical parts and assemblies' ) ;
#61 = PERSON_AND_ORGANIZATION ( #163, #173 ) ;
#62 = DATE_AND_TIME ( #187, #147 ) ;
#63 = EDGE_CURVE ( 'NONE', #223, #223, #280, .T. ) ;
#64 = EDGE_CURVE ( 'NONE', #31, #31, #258, .T. ) ;
#65 = AXIS2_PLACEMENT_3D ( 'NONE', #33, #131, #114 ) ;
#66 = MANIFOLD_SOLID_BREP ( 'Corps-Déplacer/Copier1[2]', #254 ) ;
#67 = DIRECTION ( 'NONE',  ( -3.491481338843133355E-15, 1.224646799147353207E-16, -1.000000000000000000 ) ) ;
#68 = DIRECTION ( 'NONE',  ( 0.0000000000000000000, 1.000000000000000000, 0.0000000000000000000 ) ) ;
#69 = VERTEX_POINT ( 'NONE', #57 ) ;
#70 = APPLICATION_CONTEXT ( 'configuration controlled 3d designs of mechanical parts and assemblies' ) ;
#71 = DIRECTION ( 'NONE',  ( 3.491481338843133355E-15, -1.224646799147353207E-16, 1.000000000000000000 ) ) ;
#72 = PLANE ( 'NONE',  #30 ) ;
#73 = CARTESIAN_POINT ( 'NONE',  ( 1.047444401652940007E-13, 0.5999999999999963141, 30.00000000000000000 ) ) ;
#74 = EDGE_LOOP ( 'NONE', ( #26 ) ) ;
#75 = MANIFOLD_SOLID_BREP ( 'Corps-Déplacer/Copier1[1]', #56 ) ;
#76 = CC_DESIGN_PERSON_AND_ORGANIZATION_ASSIGNMENT ( #259, #215, ( #22 ) ) ;
#77 = DIRECTION ( 'NONE',  ( 0.0000000000000000000, 1.000000000000000000, 0.0000000000000000000 ) ) ;
#78 = CONICAL_SURFACE ( 'NONE', #103, 0.6000000000000000888, 0.7853981633974450594 ) ;
#79 = CARTESIAN_POINT ( 'NONE',  ( -6.093059810403166540E-32, 2.137157690293146954E-33, -1.745121688784978154E-17 ) ) ;
#80 = PERSON_AND_ORGANIZATION ( #163, #173 ) ;
#81 = DIRECTION ( 'NONE',  ( 1.000000000000000000, 0.0000000000000000000, 0.0000000000000000000 ) ) ;
#82 = AXIS2_PLACEMENT_3D ( 'NONE', #111, #194, #116 ) ;
#83 = APPLICATION_PROTOCOL_DEFINITION ( 'international standard', 'config_control_design', 1994, #70 ) ;
#84 = CALENDAR_DATE ( 2021, 16, 12 ) ;
#85 = EDGE_CURVE ( 'NONE', #47, #47, #262, .T. ) ;
#86 = AXIS2_PLACEMENT_3D ( 'NONE', #79, #199, #8 ) ;
#87 = CIRCLE ( 'NONE', #244, 0.7499999999999971134 ) ;
#88 = FACE_OUTER_BOUND ( 'NONE', #181, .T. ) ;
#89 = FACE_OUTER_BOUND ( 'NONE', #137, .T. ) ;
#90 = VERTEX_POINT ( 'NONE', #118 ) ;
#91 = EDGE_LOOP ( 'NONE', ( #214 ) ) ;
#92 = DIRECTION ( 'NONE',  ( -3.491481338843133355E-15, 1.224646799147353207E-16, -1.000000000000000000 ) ) ;
#93 = AXIS2_PLACEMENT_3D ( 'NONE', #208, #140, #175 ) ;
#94 = DIRECTION ( 'NONE',  ( -3.491481338843133355E-15, 1.224646799147353207E-16, -1.000000000000000000 ) ) ;
#95 = AXIS2_PLACEMENT_3D ( 'NONE', #242, #192, #183 ) ;
#96 = APPROVAL ( #14, 'UNSPECIFIED' ) ;
#97 = DIRECTION ( 'NONE',  ( -3.491481338843133355E-15, 1.224646799147353207E-16, -1.000000000000000000 ) ) ;
#98 =( NAMED_UNIT ( * ) PLANE_ANGLE_UNIT ( ) SI_UNIT ( $, .RADIAN. ) );
#99 = ADVANCED_FACE ( 'NONE', ( #267, #88 ), #12, .T. ) ;
#100 = AXIS2_PLACEMENT_3D ( 'NONE', #243, #157, #46 ) ;
#101 = PERSON_AND_ORGANIZATION_ROLE ( 'creator' ) ;
#102 = APPROVAL_DATE_TIME ( #237, #255 ) ;
#103 = AXIS2_PLACEMENT_3D ( 'NONE', #224, #92, #134 ) ;
#104 = COORDINATED_UNIVERSAL_TIME_OFFSET ( 1, 0, .AHEAD. ) ;
#105 = CC_DESIGN_DATE_AND_TIME_ASSIGNMENT ( #211, #282, ( #22 ) ) ;
#106 = APPROVAL_DATE_TIME ( #38, #96 ) ;
#107 = CC_DESIGN_DATE_AND_TIME_ASSIGNMENT ( #236, #168, ( #115 ) ) ;
#108 = AXIS2_PLACEMENT_3D ( 'NONE', #152, #225, #228 ) ;
#109 = DIRECTION ( 'NONE',  ( 8.265793752734925583E-31, 1.000000000000000000, 2.326614104046149038E-16 ) ) ;
#110 = CC_DESIGN_APPROVAL ( #96, ( #20 ) ) ;
#111 = CARTESIAN_POINT ( 'NONE',  ( 1.860753389504060951E-14, -6.526644313137821948E-16, 5.329409522551257439 ) ) ;
#112 = DIRECTION ( 'NONE',  ( -3.491481338843133355E-15, 1.224646799147353207E-16, -1.000000000000000000 ) ) ;
#113 = FACE_OUTER_BOUND ( 'NONE', #32, .T. ) ;
#114 = DIRECTION ( 'NONE',  ( 4.275831445896958607E-31, 1.000000000000000000, 1.224646799147353207E-16 ) ) ;
#115 = PRODUCT_DEFINITION ( 'UNKNOWN', '', #20, #171 ) ;
#116 = DIRECTION ( 'NONE',  ( 0.0000000000000000000, 1.000000000000000000, 0.0000000000000000000 ) ) ;
#117 = FACE_OUTER_BOUND ( 'NONE', #251, .T. ) ;
#118 = CARTESIAN_POINT ( 'NONE',  ( 0.0000000000000000000, 0.2849999999999999756, 0.0000000000000000000 ) ) ;
#119 = PLANE ( 'NONE',  #86 ) ;
#120 = COORDINATED_UNIVERSAL_TIME_OFFSET ( 1, 0, .AHEAD. ) ;
#121 = ORIENTED_EDGE ( 'NONE', *, *, #249, .T. ) ;
#122 = CIRCLE ( 'NONE', #100, 0.2849999999999999756 ) ;
#123 = ORIENTED_EDGE ( 'NONE', *, *, #172, .T. ) ;
#124 = ADVANCED_BREP_SHAPE_REPRESENTATION ( '62343', ( #75, #66, #18 ), #230 ) ;
#125 = CC_DESIGN_PERSON_AND_ORGANIZATION_ASSIGNMENT ( #126, #101, ( #20 ) ) ;
#126 = PERSON_AND_ORGANIZATION ( #163, #173 ) ;
#127 = APPROVAL_PERSON_ORGANIZATION ( #233, #255, #145 ) ;
#128 = DIRECTION ( 'NONE',  ( 3.491481338843133355E-15, -1.224646799147353207E-16, 1.000000000000000000 ) ) ;
#129 = DIRECTION ( 'NONE',  ( 0.0000000000000000000, -1.000000000000000000, 0.0000000000000000000 ) ) ;
#130 = AXIS2_PLACEMENT_3D ( 'NONE', #270, #23, #68 ) ;
#131 = DIRECTION ( 'NONE',  ( -3.491481338843133355E-15, 1.224646799147353207E-16, -1.000000000000000000 ) ) ;
#132 = EDGE_LOOP ( 'NONE', ( #177 ) ) ;
#133 = FACE_BOUND ( 'NONE', #132, .T. ) ;
#134 = DIRECTION ( 'NONE',  ( 0.0000000000000000000, 1.000000000000000000, 0.0000000000000000000 ) ) ;
#135 = CARTESIAN_POINT ( 'NONE',  ( 1.042207179644675275E-13, -3.655570695454848748E-15, 29.84999999999999787 ) ) ;
#136 = ORIENTED_EDGE ( 'NONE', *, *, #165, .T. ) ;
#137 = EDGE_LOOP ( 'NONE', ( #229 ) ) ;
#138 = AXIS2_PLACEMENT_3D ( 'NONE', #248, #128, #150 ) ;
#139 = VERTEX_POINT ( 'NONE', #269 ) ;
#140 = DIRECTION ( 'NONE',  ( -3.491481338843133355E-15, 1.224646799147353207E-16, -1.000000000000000000 ) ) ;
#141 = DIRECTION ( 'NONE',  ( 0.0000000000000000000, 0.0000000000000000000, 1.000000000000000000 ) ) ;
#142 = PERSON_AND_ORGANIZATION_ROLE ( 'design_owner' ) ;
#143 = ADVANCED_FACE ( 'NONE', ( #202, #159 ), #43, .T. ) ;
#144 = PRODUCT ( '62343', '62343', '', ( #281 ) ) ;
#145 = APPROVAL_ROLE ( '' ) ;
#146 = APPROVAL_DATE_TIME ( #62, #166 ) ;
#147 = LOCAL_TIME ( 12, 55, 58.00000000000000000, #104 ) ;
#148 = TOROIDAL_SURFACE ( 'NONE', #65, 0.9660000000000000808, 0.5000000000000000000 ) ;
#149 = ADVANCED_FACE ( 'NONE', ( #50, #180 ), #221, .T. ) ;
#150 = DIRECTION ( 'NONE',  ( -4.275831445896958607E-31, -1.000000000000000000, -1.224646799147353207E-16 ) ) ;
#151 = DIRECTION ( 'NONE',  ( 4.275831445896958607E-31, 1.000000000000000000, 1.224646799147353207E-16 ) ) ;
#152 = CARTESIAN_POINT ( 'NONE',  ( 0.0000000000000000000, 0.0000000000000000000, 0.0000000000000000000 ) ) ;
#153 = EDGE_LOOP ( 'NONE', ( #196 ) ) ;
#154 = ADVANCED_FACE ( 'NONE', ( #24 ), #44, .T. ) ;
#155 = CIRCLE ( 'NONE', #190, 0.4659999999999995257 ) ;
#156 = CARTESIAN_POINT ( 'NONE',  ( 1.815570296198429345E-14, -6.368163355566236381E-16, 5.200000000000000178 ) ) ;
#157 = DIRECTION ( 'NONE',  ( -3.491481338843133355E-15, 1.224646799147353207E-16, -1.000000000000000000 ) ) ;
#158 = ORIENTED_EDGE ( 'NONE', *, *, #55, .T. ) ;
#159 = FACE_OUTER_BOUND ( 'NONE', #161, .T. ) ;
#160 = DIRECTION ( 'NONE',  ( 0.0000000000000000000, 1.000000000000000000, 0.0000000000000000000 ) ) ;
#161 = EDGE_LOOP ( 'NONE', ( #272 ) ) ;
#162 = AXIS2_PLACEMENT_3D ( 'NONE', #227, #178, #129 ) ;
#163 = PERSON ( 'UNSPECIFIED', 'UNSPECIFIED', 'UNSPECIFIED', ('UNSPECIFIED'), ('UNSPECIFIED'), ('UNSPECIFIED') ) ;
#164 = COORDINATED_UNIVERSAL_TIME_OFFSET ( 1, 0, .AHEAD. ) ;
#165 = EDGE_CURVE ( 'NONE', #69, #69, #155, .T. ) ;
#166 = APPROVAL ( #19, 'UNSPECIFIED' ) ;
#167 = CIRCLE ( 'NONE', #130, 0.4659999999999999143 ) ;
#168 = DATE_TIME_ROLE ( 'creation_date' ) ;
#169 = PERSON_AND_ORGANIZATION_ROLE ( 'design_supplier' ) ;
#170 = AXIS2_PLACEMENT_3D ( 'NONE', #135, #112, #160 ) ;
#171 = DESIGN_CONTEXT ( 'detailed design', #70, 'design' ) ;
#172 = EDGE_CURVE ( 'NONE', #28, #28, #201, .T. ) ;
#173 = ORGANIZATION ( 'UNSPECIFIED', 'UNSPECIFIED', '' ) ;
#174 = DIRECTION ( 'NONE',  ( -3.491481338843133355E-15, 1.224646799147353207E-16, -1.000000000000000000 ) ) ;
#175 = DIRECTION ( 'NONE',  ( 0.0000000000000000000, 1.000000000000000000, 0.0000000000000000000 ) ) ;
#176 = CARTESIAN_POINT ( 'NONE',  ( 1.860753389504060951E-14, 0.4830370868554649255, 5.329409522551257439 ) ) ;
#177 = ORIENTED_EDGE ( 'NONE', *, *, #226, .F. ) ;
#178 = DIRECTION ( 'NONE',  ( 3.491481338843133355E-15, -1.224646799147353207E-16, 1.000000000000000000 ) ) ;
#179 = APPROVAL_PERSON_ORGANIZATION ( #238, #96, #277 ) ;
#180 = FACE_OUTER_BOUND ( 'NONE', #260, .T. ) ;
#181 = EDGE_LOOP ( 'NONE', ( #121 ) ) ;
#182 = ORIENTED_EDGE ( 'NONE', *, *, #85, .F. ) ;
#183 = DIRECTION ( 'NONE',  ( -8.265793752734925583E-31, -1.000000000000000000, -2.326614104046149038E-16 ) ) ;
#184 = EDGE_LOOP ( 'NONE', ( #123 ) ) ;
#185 = ADVANCED_FACE ( 'NONE', ( #133, #2 ), #10, .T. ) ;
#186 = LOCAL_TIME ( 12, 55, 58.00000000000000000, #120 ) ;
#187 = CALENDAR_DATE ( 2021, 16, 12 ) ;
#188 = CC_DESIGN_PERSON_AND_ORGANIZATION_ASSIGNMENT ( #275, #169, ( #20 ) ) ;
#189 = ORIENTED_EDGE ( 'NONE', *, *, #55, .F. ) ;
#190 = AXIS2_PLACEMENT_3D ( 'NONE', #21, #97, #109 ) ;
#191 = CC_DESIGN_PERSON_AND_ORGANIZATION_ASSIGNMENT ( #80, #261, ( #115 ) ) ;
#192 = DIRECTION ( 'NONE',  ( 3.491481338843133355E-15, -1.224646799147353207E-16, 1.000000000000000000 ) ) ;
#193 = ADVANCED_FACE ( 'NONE', ( #113 ), #273, .F. ) ;
#194 = DIRECTION ( 'NONE',  ( -3.491481338843133355E-15, 1.224646799147353207E-16, -1.000000000000000000 ) ) ;
#195 = CARTESIAN_POINT ( 'NONE',  ( 1.815570296198429345E-14, 0.4659999999999994147, 5.200000000000000178 ) ) ;
#196 = ORIENTED_EDGE ( 'NONE', *, *, #226, .T. ) ;
#197 = FACE_OUTER_BOUND ( 'NONE', #53, .T. ) ;
#198 = VERTEX_POINT ( 'NONE', #245 ) ;
#199 = DIRECTION ( 'NONE',  ( 3.491481338843133355E-15, -1.224646799147353207E-16, 1.000000000000000000 ) ) ;
#200 = DIRECTION ( 'NONE',  ( 4.275831445896958607E-31, 1.000000000000000000, 1.224646799147353454E-16 ) ) ;
#201 = CIRCLE ( 'NONE', #82, 0.4830370868554655917 ) ;
#202 = FACE_OUTER_BOUND ( 'NONE', #212, .T. ) ;
#203 = EDGE_LOOP ( 'NONE', ( #276 ) ) ;
#204 = EDGE_CURVE ( 'NONE', #139, #139, #167, .T. ) ;
#205 = APPLICATION_PROTOCOL_DEFINITION ( 'international standard', 'config_control_design', 1994, #60 ) ;
#206 = PRODUCT_DEFINITION_SHAPE ( 'NONE', 'NONE',  #115 ) ;
#207 = CALENDAR_DATE ( 2021, 16, 12 ) ;
#208 = CARTESIAN_POINT ( 'NONE',  ( 1.047444401652940007E-13, -3.673940397442059178E-15, 30.00000000000000000 ) ) ;
#209 = AXIS2_PLACEMENT_3D ( 'NONE', #7, #222, #77 ) ;
#210 = ADVANCED_FACE ( 'NONE', ( #89 ), #72, .F. ) ;
#211 = DATE_AND_TIME ( #37, #218 ) ;
#212 = EDGE_LOOP ( 'NONE', ( #54 ) ) ;
#213 = SECURITY_CLASSIFICATION_LEVEL ( 'unclassified' ) ;
#214 = ORIENTED_EDGE ( 'NONE', *, *, #64, .F. ) ;
#215 = PERSON_AND_ORGANIZATION_ROLE ( 'classification_officer' ) ;
#216 = AXIS2_PLACEMENT_3D ( 'NONE', #9, #71, #220 ) ;
#217 = APPROVAL_STATUS ( 'not_yet_approved' ) ;
#218 = LOCAL_TIME ( 12, 55, 58.00000000000000000, #15 ) ;
#219 = DIRECTION ( 'NONE',  ( 4.275831445896957731E-31, 1.000000000000000000, 1.224646799147353207E-16 ) ) ;
#220 = DIRECTION ( 'NONE',  ( -4.275831445896958607E-31, -1.000000000000000000, -1.224646799147353207E-16 ) ) ;
#221 = CONICAL_SURFACE ( 'NONE', #162, 0.7499999999999971134, 0.2617993877991426910 ) ;
#222 = DIRECTION ( 'NONE',  ( -3.491481338843133355E-15, 1.224646799147353207E-16, -1.000000000000000000 ) ) ;
#223 = VERTEX_POINT ( 'NONE', #73 ) ;
#224 = CARTESIAN_POINT ( 'NONE',  ( 1.047444401652940007E-13, -3.673940397442059178E-15, 30.00000000000000000 ) ) ;
#225 = DIRECTION ( 'NONE',  ( -3.491481338843133355E-15, 1.224646799147353207E-16, -1.000000000000000000 ) ) ;
#226 = EDGE_CURVE ( 'NONE', #90, #90, #122, .T. ) ;
#227 = CARTESIAN_POINT ( 'NONE',  ( 2.208616363432207904E-14, -7.746783377962777177E-16, 6.325728678143273775 ) ) ;
#228 = DIRECTION ( 'NONE',  ( 4.275831445896957731E-31, 1.000000000000000000, 1.224646799147353207E-16 ) ) ;
#229 = ORIENTED_EDGE ( 'NONE', *, *, #63, .F. ) ;
#230 =( GEOMETRIC_REPRESENTATION_CONTEXT ( 3 ) GLOBAL_UNCERTAINTY_ASSIGNED_CONTEXT ( ( #42 ) ) GLOBAL_UNIT_ASSIGNED_CONTEXT ( ( #25, #98, #11 ) ) REPRESENTATION_CONTEXT ( 'NONE', 'WORKASPACE' ) );
#231 = CARTESIAN_POINT ( 'NONE',  ( 1.042207179644675275E-13, 0.7499999999999962252, 29.84999999999999787 ) ) ;
#232 = FACE_OUTER_BOUND ( 'NONE', #153, .T. ) ;
#233 = PERSON_AND_ORGANIZATION ( #163, #173 ) ;
#234 = DIRECTION ( 'NONE',  ( 0.0000000000000000000, 1.000000000000000000, 0.0000000000000000000 ) ) ;
#235 = ADVANCED_FACE ( 'NONE', ( #197, #52 ), #78, .T. ) ;
#236 = DATE_AND_TIME ( #207, #186 ) ;
#237 = DATE_AND_TIME ( #84, #40 ) ;
#238 = PERSON_AND_ORGANIZATION ( #163, #173 ) ;
#239 = CYLINDRICAL_SURFACE ( 'NONE', #108, 0.4659999999999997478 ) ;
#240 = LOCAL_TIME ( 12, 55, 58.00000000000000000, #164 ) ;
#241 = ADVANCED_FACE ( 'NONE', ( #29, #117 ), #239, .T. ) ;
#242 = CARTESIAN_POINT ( 'NONE',  ( 2.358499820793710031E-15, -8.272503777097778492E-17, 0.6755011961699829426 ) ) ;
#243 = CARTESIAN_POINT ( 'NONE',  ( -1.218611962080633308E-31, 4.274315380586293909E-33, -3.490243377569956308E-17 ) ) ;
#244 = AXIS2_PLACEMENT_3D ( 'NONE', #35, #59, #234 ) ;
#245 = CARTESIAN_POINT ( 'NONE',  ( 2.208616363432207904E-14, 0.7499999999999963363, 6.325728678143273775 ) ) ;
#246 = FACE_OUTER_BOUND ( 'NONE', #4, .T. ) ;
#247 = ORIENTED_EDGE ( 'NONE', *, *, #249, .F. ) ;
#248 = CARTESIAN_POINT ( 'NONE',  ( 1.396592535537253342E-14, 3.494440293602119660E-33, 4.000000000000000000 ) ) ;
#249 = EDGE_CURVE ( 'NONE', #266, #266, #274, .T. ) ;
#250 = DIRECTION ( 'NONE',  ( -3.491481338843133355E-15, 1.224646799147353207E-16, -1.000000000000000000 ) ) ;
#251 = EDGE_LOOP ( 'NONE', ( #252 ) ) ;
#252 = ORIENTED_EDGE ( 'NONE', *, *, #64, .T. ) ;
#253 = EDGE_LOOP ( 'NONE', ( #49 ) ) ;
#254 = CLOSED_SHELL ( 'NONE', ( #16, #185, #241, #154 ) ) ;
#255 = APPROVAL ( #217, 'UNSPECIFIED' ) ;
#256 = PERSON_AND_ORGANIZATION ( #163, #173 ) ;
#257 = AXIS2_PLACEMENT_3D ( 'NONE', #1, #174, #200 ) ;
#258 = CIRCLE ( 'NONE', #209, 0.4659999999999999143 ) ;
#259 = PERSON_AND_ORGANIZATION ( #163, #173 ) ;
#260 = EDGE_LOOP ( 'NONE', ( #158 ) ) ;
#261 = PERSON_AND_ORGANIZATION_ROLE ( 'creator' ) ;
#262 = CIRCLE ( 'NONE', #45, 0.4660000000000000253 ) ;
#263 = CC_DESIGN_PERSON_AND_ORGANIZATION_ASSIGNMENT ( #256, #142, ( #144 ) ) ;
#264 = DIRECTION ( 'NONE',  ( 0.0000000000000000000, 1.000000000000000000, 0.0000000000000000000 ) ) ;
#265 = CARTESIAN_POINT ( 'NONE',  ( 1.047444401652940007E-13, 4.499279347985518085E-33, 30.00000000000000000 ) ) ;
#266 = VERTEX_POINT ( 'NONE', #231 ) ;
#267 = FACE_OUTER_BOUND ( 'NONE', #41, .T. ) ;
#268 = CC_DESIGN_APPROVAL ( #255, ( #115 ) ) ;
#269 = CARTESIAN_POINT ( 'NONE',  ( 1.396592535537253342E-14, 0.4659999999999994147, 4.000000000000000000 ) ) ;
#270 = CARTESIAN_POINT ( 'NONE',  ( 1.396592535537253342E-14, -4.898587196589412829E-16, 4.000000000000000000 ) ) ;
#271 = EDGE_LOOP ( 'NONE', ( #136 ) ) ;
#272 = ORIENTED_EDGE ( 'NONE', *, *, #85, .T. ) ;
#273 = PLANE ( 'NONE',  #216 ) ;
#274 = CIRCLE ( 'NONE', #170, 0.7499999999999998890 ) ;
#275 = PERSON_AND_ORGANIZATION ( #163, #173 ) ;
#276 = ORIENTED_EDGE ( 'NONE', *, *, #165, .F. ) ;
#277 = APPROVAL_ROLE ( '' ) ;
#278 = CARTESIAN_POINT ( 'NONE',  ( 0.0000000000000000000, 0.0000000000000000000, 0.0000000000000000000 ) ) ;
#279 = ORIENTED_EDGE ( 'NONE', *, *, #204, .T. ) ;
#280 = CIRCLE ( 'NONE', #93, 0.6000000000000000888 ) ;
#281 = MECHANICAL_CONTEXT ( 'NONE', #60, 'mechanical' ) ;
#282 = DATE_TIME_ROLE ( 'classification_date' ) ;
#283 = AXIS2_PLACEMENT_3D ( 'NONE', #27, #67, #219 ) ;
ENDSEC;
END-ISO-10303-21;
