ISO-10303-21;
HEADER;
FILE_DESCRIPTION (( 'STEP AP203' ),
    '1' );
FILE_NAME ('62342.step',
    '2021-12-16T10:16:20',
    ( '' ),
    ( '' ),
    'SwSTEP 2.0',
    'SolidWorks 2019',
    '' );
FILE_SCHEMA (( 'CONFIG_CONTROL_DESIGN' ));
ENDSEC;

DATA;
#1 = EDGE_LOOP ( 'NONE', ( #283 ) ) ;
#2 = CARTESIAN_POINT ( 'NONE',  ( 1.396592535537253342E-14, 0.4659999999999995812, 4.000000000000000000 ) ) ;
#3 = ORIENTED_EDGE ( 'NONE', *, *, #241, .F. ) ;
#4 = DIRECTION ( 'NONE',  ( 4.275831445896958607E-31, 1.000000000000000000, 1.224646799147353207E-16 ) ) ;
#5 = AXIS2_PLACEMENT_3D ( 'NONE', #136, #162, #222 ) ;
#6 = CC_DESIGN_SECURITY_CLASSIFICATION ( #231, ( #261 ) ) ;
#7 = CARTESIAN_POINT ( 'NONE',  ( 2.034042296490051552E-14, -7.134459978389101436E-16, 5.825728678143273775 ) ) ;
#8 = CARTESIAN_POINT ( 'NONE',  ( 1.396592535537253342E-14, 3.494440293602121712E-33, 4.000000000000000000 ) ) ;
#9 = CARTESIAN_POINT ( 'NONE',  ( 0.0000000000000000000, 0.0000000000000000000, 0.0000000000000000000 ) ) ;
#10 = VERTEX_POINT ( 'NONE', #2 ) ;
#11 = EDGE_LOOP ( 'NONE', ( #53 ) ) ;
#12 = AXIS2_PLACEMENT_3D ( 'NONE', #55, #30, #124 ) ;
#13 = LOCAL_TIME ( 11, 16, 20.00000000000000000, #184 ) ;
#14 = DIRECTION ( 'NONE',  ( -3.491481338843133355E-15, 1.224646799147353207E-16, -1.000000000000000000 ) ) ;
#15 = COORDINATED_UNIVERSAL_TIME_OFFSET ( 1, 0, .AHEAD. ) ;
#16 = AXIS2_PLACEMENT_3D ( 'NONE', #263, #204, #248 ) ;
#17 = AXIS2_PLACEMENT_3D ( 'NONE', #7, #74, #112 ) ;
#18 = ADVANCED_FACE ( 'NONE', ( #243 ), #77, .T. ) ;
#19 = APPROVAL_DATE_TIME ( #61, #105 ) ;
#20 = PERSON_AND_ORGANIZATION ( #68, #211 ) ;
#21 = CC_DESIGN_DATE_AND_TIME_ASSIGNMENT ( #23, #106, ( #231 ) ) ;
#22 = EDGE_CURVE ( 'NONE', #266, #266, #101, .T. ) ;
#23 = DATE_AND_TIME ( #210, #160 ) ;
#24 = AXIS2_PLACEMENT_3D ( 'NONE', #8, #159, #199 ) ;
#25 = EDGE_LOOP ( 'NONE', ( #238 ) ) ;
#26 = DESIGN_CONTEXT ( 'detailed design', #70, 'design' ) ;
#27 = FACE_OUTER_BOUND ( 'NONE', #25, .T. ) ;
#28 = CYLINDRICAL_SURFACE ( 'NONE', #63, 0.4660000000000000808 ) ;
#29 = CALENDAR_DATE ( 2021, 16, 12 ) ;
#30 = DIRECTION ( 'NONE',  ( 3.491481338843133355E-15, -1.224646799147353207E-16, 1.000000000000000000 ) ) ;
#31 = DIRECTION ( 'NONE',  ( 4.275831445896958607E-31, 1.000000000000000000, 1.224646799147353207E-16 ) ) ;
#32 = CARTESIAN_POINT ( 'NONE',  ( 1.396592535537253342E-14, -4.898587196589412829E-16, 4.000000000000000000 ) ) ;
#33 = DIRECTION ( 'NONE',  ( 0.0000000000000000000, 1.000000000000000000, 0.0000000000000000000 ) ) ;
#34 = APPROVAL ( #67, 'UNSPECIFIED' ) ;
#35 = PLANE ( 'NONE',  #24 ) ;
#36 = EDGE_LOOP ( 'NONE', ( #192 ) ) ;
#37 = AXIS2_PLACEMENT_3D ( 'NONE', #131, #84, #133 ) ;
#38 = CC_DESIGN_APPROVAL ( #34, ( #231 ) ) ;
#39 = APPROVAL_STATUS ( 'not_yet_approved' ) ;
#40 = ADVANCED_FACE ( 'NONE', ( #201 ), #271, .F. ) ;
#41 = PERSON_AND_ORGANIZATION_ROLE ( 'creator' ) ;
#42 = CLOSED_SHELL ( 'NONE', ( #97, #120, #157, #265, #223, #188, #274 ) ) ;
#43 = VERTEX_POINT ( 'NONE', #280 ) ;
#44 = PERSON_AND_ORGANIZATION_ROLE ( 'design_owner' ) ;
#45 = EDGE_CURVE ( 'NONE', #191, #191, #189, .T. ) ;
#46 = TOROIDAL_SURFACE ( 'NONE', #272, 0.9660000000000001918, 0.5000000000000000000 ) ;
#47 = AXIS2_PLACEMENT_3D ( 'NONE', #116, #178, #239 ) ;
#48 = ORIENTED_EDGE ( 'NONE', *, *, #62, .F. ) ;
#49 = VERTEX_POINT ( 'NONE', #208 ) ;
#50 = DIRECTION ( 'NONE',  ( 4.275831445896958607E-31, 1.000000000000000000, 1.224646799147353454E-16 ) ) ;
#51 = EDGE_LOOP ( 'NONE', ( #247 ) ) ;
#52 = FACE_BOUND ( 'NONE', #98, .T. ) ;
#53 = ORIENTED_EDGE ( 'NONE', *, *, #246, .T. ) ;
#54 = CARTESIAN_POINT ( 'NONE',  ( 2.034042296490051552E-14, 0.7499999999999963363, 5.825728678143273775 ) ) ;
#55 = CARTESIAN_POINT ( 'NONE',  ( 1.396592535537253342E-14, 3.494440293602121712E-33, 4.000000000000000000 ) ) ;
#56 = DIRECTION ( 'NONE',  ( -3.491481338843133355E-15, 1.224646799147353207E-16, -1.000000000000000000 ) ) ;
#57 = CC_DESIGN_PERSON_AND_ORGANIZATION_ASSIGNMENT ( #166, #104, ( #261 ) ) ;
#58 = DATE_AND_TIME ( #186, #253 ) ;
#59 = ORIENTED_EDGE ( 'NONE', *, *, #170, .F. ) ;
#60 =( GEOMETRIC_REPRESENTATION_CONTEXT ( 3 ) GLOBAL_UNCERTAINTY_ASSIGNED_CONTEXT ( ( #110 ) ) GLOBAL_UNIT_ASSIGNED_CONTEXT ( ( #250, #139, #249 ) ) REPRESENTATION_CONTEXT ( 'NONE', 'WORKASPACE' ) );
#61 = DATE_AND_TIME ( #273, #13 ) ;
#62 = EDGE_CURVE ( 'NONE', #137, #137, #252, .T. ) ;
#63 = AXIS2_PLACEMENT_3D ( 'NONE', #9, #115, #4 ) ;
#64 = CONICAL_SURFACE ( 'NONE', #17, 0.7499999999999971134, 0.2617993877991427465 ) ;
#65 = PERSON_AND_ORGANIZATION ( #68, #211 ) ;
#66 = PERSON_AND_ORGANIZATION_ROLE ( 'classification_officer' ) ;
#67 = APPROVAL_STATUS ( 'not_yet_approved' ) ;
#68 = PERSON ( 'UNSPECIFIED', 'UNSPECIFIED', 'UNSPECIFIED', ('UNSPECIFIED'), ('UNSPECIFIED'), ('UNSPECIFIED') ) ;
#69 = EDGE_CURVE ( 'NONE', #10, #10, #179, .T. ) ;
#70 = APPLICATION_CONTEXT ( 'configuration controlled 3d designs of mechanical parts and assemblies' ) ;
#71 = DIRECTION ( 'NONE',  ( 0.0000000000000000000, 1.000000000000000000, 0.0000000000000000000 ) ) ;
#72 = EDGE_LOOP ( 'NONE', ( #91 ) ) ;
#73 = CARTESIAN_POINT ( 'NONE',  ( 1.640996229256272677E-14, -5.421010862427522170E-16, 4.700000000000000178 ) ) ;
#74 = DIRECTION ( 'NONE',  ( 3.491481338843133355E-15, -1.224646799147353207E-16, 1.000000000000000000 ) ) ;
#75 = FACE_OUTER_BOUND ( 'NONE', #109, .T. ) ;
#76 = CARTESIAN_POINT ( 'NONE',  ( 1.686179322561904284E-14, -5.914320913564145221E-16, 4.829409522551258327 ) ) ;
#77 = PLANE ( 'NONE',  #12 ) ;
#78 = AXIS2_PLACEMENT_3D ( 'NONE', #224, #132, #119 ) ;
#79 = PRODUCT ( '62342', '62342', '', ( #128 ) ) ;
#80 = PRODUCT_DEFINITION ( 'UNKNOWN', '', #261, #26 ) ;
#81 = CARTESIAN_POINT ( 'NONE',  ( 1.047444401652940007E-13, 0.5999999999999963141, 30.00000000000000000 ) ) ;
#82 = CYLINDRICAL_SURFACE ( 'NONE', #107, 0.4659999999999998588 ) ;
#83 = PRODUCT_DEFINITION_SHAPE ( 'NONE', 'NONE',  #80 ) ;
#84 = DIRECTION ( 'NONE',  ( -3.491481338843133355E-15, 1.224646799147353207E-16, -1.000000000000000000 ) ) ;
#85 = APPLICATION_PROTOCOL_DEFINITION ( 'international standard', 'config_control_design', 1994, #235 ) ;
#86 = PERSON_AND_ORGANIZATION ( #68, #211 ) ;
#87 = CIRCLE ( 'NONE', #47, 0.4659999999999996922 ) ;
#88 = DIRECTION ( 'NONE',  ( 1.000000000000000000, 0.0000000000000000000, 0.0000000000000000000 ) ) ;
#89 = ORIENTED_EDGE ( 'NONE', *, *, #45, .T. ) ;
#90 = CARTESIAN_POINT ( 'NONE',  ( 1.047444401652940007E-13, 4.499279347985518085E-33, 30.00000000000000000 ) ) ;
#91 = ORIENTED_EDGE ( 'NONE', *, *, #170, .T. ) ;
#92 = CC_DESIGN_APPROVAL ( #251, ( #80 ) ) ;
#93 = FACE_OUTER_BOUND ( 'NONE', #36, .T. ) ;
#94 = EDGE_LOOP ( 'NONE', ( #48 ) ) ;
#95 = ORIENTED_EDGE ( 'NONE', *, *, #22, .T. ) ;
#96 = ADVANCED_FACE ( 'NONE', ( #121, #75 ), #82, .T. ) ;
#97 = ADVANCED_FACE ( 'NONE', ( #218 ), #35, .F. ) ;
#98 = EDGE_LOOP ( 'NONE', ( #245 ) ) ;
#99 = CONICAL_SURFACE ( 'NONE', #257, 0.6000000000000000888, 0.7853981633974450594 ) ;
#100 = FACE_OUTER_BOUND ( 'NONE', #163, .T. ) ;
#101 = CIRCLE ( 'NONE', #37, 0.4660000000000001363 ) ;
#102 = APPROVAL_STATUS ( 'not_yet_approved' ) ;
#103 = LOCAL_TIME ( 11, 16, 20.00000000000000000, #281 ) ;
#104 = PERSON_AND_ORGANIZATION_ROLE ( 'creator' ) ;
#105 = APPROVAL ( #102, 'UNSPECIFIED' ) ;
#106 = DATE_TIME_ROLE ( 'classification_date' ) ;
#107 = AXIS2_PLACEMENT_3D ( 'NONE', #225, #14, #140 ) ;
#108 = PERSON_AND_ORGANIZATION ( #68, #211 ) ;
#109 = EDGE_LOOP ( 'NONE', ( #203 ) ) ;
#110 = UNCERTAINTY_MEASURE_WITH_UNIT (LENGTH_MEASURE( 1.000000000000000082E-05 ), #250, 'distance_accuracy_value', 'NONE');
#111 = AXIS2_PLACEMENT_3D ( 'NONE', #236, #217, #33 ) ;
#112 = DIRECTION ( 'NONE',  ( 0.0000000000000000000, -1.000000000000000000, 0.0000000000000000000 ) ) ;
#113 = SHAPE_DEFINITION_REPRESENTATION ( #83, #177 ) ;
#114 = FACE_OUTER_BOUND ( 'NONE', #11, .T. ) ;
#115 = DIRECTION ( 'NONE',  ( -3.491481338843133355E-15, 1.224646799147353207E-16, -1.000000000000000000 ) ) ;
#116 = CARTESIAN_POINT ( 'NONE',  ( 2.358499820793711609E-15, -8.272503777097784655E-17, 0.6755011961699833867 ) ) ;
#117 = CLOSED_SHELL ( 'NONE', ( #40, #193, #96, #18 ) ) ;
#118 = DIRECTION ( 'NONE',  ( 3.491481338843133355E-15, -1.224646799147353207E-16, 1.000000000000000000 ) ) ;
#119 = DIRECTION ( 'NONE',  ( 0.0000000000000000000, 1.000000000000000000, 0.0000000000000000000 ) ) ;
#120 = ADVANCED_FACE ( 'NONE', ( #226, #100 ), #28, .T. ) ;
#121 = FACE_OUTER_BOUND ( 'NONE', #168, .T. ) ;
#122 = DIRECTION ( 'NONE',  ( -3.491481338843133355E-15, 1.224646799147353207E-16, -1.000000000000000000 ) ) ;
#123 = ORIENTED_EDGE ( 'NONE', *, *, #69, .T. ) ;
#124 = DIRECTION ( 'NONE',  ( -4.275831445896958607E-31, -1.000000000000000000, -1.224646799147353207E-16 ) ) ;
#125 = PERSON_AND_ORGANIZATION ( #68, #211 ) ;
#126 = AXIS2_PLACEMENT_3D ( 'NONE', #175, #262, #50 ) ;
#127 = CC_DESIGN_PERSON_AND_ORGANIZATION_ASSIGNMENT ( #108, #44, ( #79 ) ) ;
#128 = MECHANICAL_CONTEXT ( 'NONE', #235, 'mechanical' ) ;
#129 = AXIS2_PLACEMENT_3D ( 'NONE', #228, #230, #88 ) ;
#130 = ORIENTED_EDGE ( 'NONE', *, *, #246, .F. ) ;
#131 = CARTESIAN_POINT ( 'NONE',  ( 1.640996229256272677E-14, -5.755839955992559655E-16, 4.700000000000000178 ) ) ;
#132 = DIRECTION ( 'NONE',  ( -3.491481338843133355E-15, 1.224646799147353207E-16, -1.000000000000000000 ) ) ;
#133 = DIRECTION ( 'NONE',  ( 0.0000000000000000000, 1.000000000000000000, 0.0000000000000000000 ) ) ;
#134 = CIRCLE ( 'NONE', #78, 0.7499999999999998890 ) ;
#135 = FACE_OUTER_BOUND ( 'NONE', #187, .T. ) ;
#136 = CARTESIAN_POINT ( 'NONE',  ( 2.034042296490051552E-14, -7.134459978389101436E-16, 5.825728678143273775 ) ) ;
#137 = VERTEX_POINT ( 'NONE', #200 ) ;
#138 = DIRECTION ( 'NONE',  ( -3.491481338843133355E-15, 1.224646799147353207E-16, -1.000000000000000000 ) ) ;
#139 =( NAMED_UNIT ( * ) PLANE_ANGLE_UNIT ( ) SI_UNIT ( $, .RADIAN. ) );
#140 = DIRECTION ( 'NONE',  ( 4.275831445896957731E-31, 1.000000000000000000, 1.224646799147353207E-16 ) ) ;
#141 = CARTESIAN_POINT ( 'NONE',  ( 1.047444401652940007E-13, -3.673940397442059178E-15, 30.00000000000000000 ) ) ;
#142 = DIRECTION ( 'NONE',  ( 4.275831445896958607E-31, 1.000000000000000000, 1.224646799147353207E-16 ) ) ;
#143 = AXIS2_PLACEMENT_3D ( 'NONE', #161, #138, #197 ) ;
#144 = APPROVAL_PERSON_ORGANIZATION ( #244, #251, #164 ) ;
#145 = CARTESIAN_POINT ( 'NONE',  ( 1.686179322561904284E-14, 0.4830370868554649255, 4.829409522551258327 ) ) ;
#146 = VERTEX_POINT ( 'NONE', #145 ) ;
#147 = FACE_BOUND ( 'NONE', #72, .T. ) ;
#148 = EDGE_LOOP ( 'NONE', ( #89 ) ) ;
#149 = CC_DESIGN_PERSON_AND_ORGANIZATION_ASSIGNMENT ( #65, #185, ( #261 ) ) ;
#150 = CIRCLE ( 'NONE', #16, 0.6000000000000000888 ) ;
#151 = CC_DESIGN_APPROVAL ( #105, ( #261 ) ) ;
#152 = ORIENTED_EDGE ( 'NONE', *, *, #227, .T. ) ;
#153 = CC_DESIGN_DATE_AND_TIME_ASSIGNMENT ( #167, #254, ( #80 ) ) ;
#154 = FACE_BOUND ( 'NONE', #94, .T. ) ;
#155 = DIRECTION ( 'NONE',  ( -8.265793752734923831E-31, -1.000000000000000000, -2.326614104046148545E-16 ) ) ;
#156 = DIRECTION ( 'NONE',  ( -3.491481338843133355E-15, 1.224646799147353207E-16, -1.000000000000000000 ) ) ;
#157 = ADVANCED_FACE ( 'NONE', ( #240, #93 ), #46, .F. ) ;
#158 = DIRECTION ( 'NONE',  ( 3.491481338843133355E-15, -1.224646799147353207E-16, 1.000000000000000000 ) ) ;
#159 = DIRECTION ( 'NONE',  ( 3.491481338843133355E-15, -1.224646799147353207E-16, 1.000000000000000000 ) ) ;
#160 = LOCAL_TIME ( 11, 16, 20.00000000000000000, #229 ) ;
#161 = CARTESIAN_POINT ( 'NONE',  ( -1.218611962080633089E-31, 4.274315380586293224E-33, -3.490243377569955691E-17 ) ) ;
#162 = DIRECTION ( 'NONE',  ( -3.491481338843133355E-15, 1.224646799147353207E-16, -1.000000000000000000 ) ) ;
#163 = EDGE_LOOP ( 'NONE', ( #95 ) ) ;
#164 = APPROVAL_ROLE ( '' ) ;
#165 = COORDINATED_UNIVERSAL_TIME_OFFSET ( 1, 0, .AHEAD. ) ;
#166 = PERSON_AND_ORGANIZATION ( #68, #211 ) ;
#167 = DATE_AND_TIME ( #209, #220 ) ;
#168 = EDGE_LOOP ( 'NONE', ( #130 ) ) ;
#169 = CONICAL_SURFACE ( 'NONE', #206, 0.4659999999999996922, 0.2617993877991429130 ) ;
#170 = EDGE_CURVE ( 'NONE', #270, #270, #150, .T. ) ;
#171 = MANIFOLD_SOLID_BREP ( 'Corps-Déplacer/Copier1[2]', #117 ) ;
#172 = VERTEX_POINT ( 'NONE', #260 ) ;
#173 = AXIS2_PLACEMENT_3D ( 'NONE', #90, #122, #31 ) ;
#174 = DIRECTION ( 'NONE',  ( 0.0000000000000000000, 1.000000000000000000, 0.0000000000000000000 ) ) ;
#175 = CARTESIAN_POINT ( 'NONE',  ( 0.0000000000000000000, 0.0000000000000000000, 0.0000000000000000000 ) ) ;
#176 = ORIENTED_EDGE ( 'NONE', *, *, #69, .F. ) ;
#177 = ADVANCED_BREP_SHAPE_REPRESENTATION ( '62342', ( #182, #171, #129 ), #60 ) ;
#178 = DIRECTION ( 'NONE',  ( -3.491481338843133355E-15, 1.224646799147353207E-16, -1.000000000000000000 ) ) ;
#179 = CIRCLE ( 'NONE', #268, 0.4660000000000000253 ) ;
#180 = DIRECTION ( 'NONE',  ( -3.491481338843133355E-15, 1.224646799147353207E-16, -1.000000000000000000 ) ) ;
#181 = EDGE_LOOP ( 'NONE', ( #256 ) ) ;
#182 = MANIFOLD_SOLID_BREP ( 'Corps-Déplacer/Copier1[1]', #42 ) ;
#183 = DIRECTION ( 'NONE',  ( -4.275831445896958607E-31, -1.000000000000000000, -1.224646799147353207E-16 ) ) ;
#184 = COORDINATED_UNIVERSAL_TIME_OFFSET ( 1, 0, .AHEAD. ) ;
#185 = PERSON_AND_ORGANIZATION_ROLE ( 'design_supplier' ) ;
#186 = CALENDAR_DATE ( 2021, 16, 12 ) ;
#187 = EDGE_LOOP ( 'NONE', ( #59 ) ) ;
#188 = ADVANCED_FACE ( 'NONE', ( #205, #147 ), #99, .T. ) ;
#189 = CIRCLE ( 'NONE', #5, 0.7499999999999971134 ) ;
#190 = APPROVAL_ROLE ( '' ) ;
#191 = VERTEX_POINT ( 'NONE', #54 ) ;
#192 = ORIENTED_EDGE ( 'NONE', *, *, #279, .T. ) ;
#193 = ADVANCED_FACE ( 'NONE', ( #154, #114 ), #169, .T. ) ;
#194 = DIRECTION ( 'NONE',  ( 0.0000000000000000000, 1.000000000000000000, 0.0000000000000000000 ) ) ;
#195 = CIRCLE ( 'NONE', #269, 0.4830370868554655361 ) ;
#196 = FACE_OUTER_BOUND ( 'NONE', #148, .T. ) ;
#197 = DIRECTION ( 'NONE',  ( 4.275831445896958607E-31, 1.000000000000000000, 1.224646799147353207E-16 ) ) ;
#198 = CYLINDRICAL_SURFACE ( 'NONE', #126, 0.7499999999999984457 ) ;
#199 = DIRECTION ( 'NONE',  ( -4.275831445896958607E-31, -1.000000000000000000, -1.224646799147353207E-16 ) ) ;
#200 = CARTESIAN_POINT ( 'NONE',  ( -2.138211768073756517E-47, 0.2849999999999999201, 0.0000000000000000000 ) ) ;
#201 = FACE_OUTER_BOUND ( 'NONE', #1, .T. ) ;
#202 = CC_DESIGN_PERSON_AND_ORGANIZATION_ASSIGNMENT ( #125, #41, ( #80 ) ) ;
#203 = ORIENTED_EDGE ( 'NONE', *, *, #241, .T. ) ;
#204 = DIRECTION ( 'NONE',  ( -3.491481338843133355E-15, 1.224646799147353207E-16, -1.000000000000000000 ) ) ;
#205 = FACE_OUTER_BOUND ( 'NONE', #51, .T. ) ;
#206 = AXIS2_PLACEMENT_3D ( 'NONE', #212, #158, #155 ) ;
#207 = APPROVAL_PERSON_ORGANIZATION ( #20, #105, #255 ) ;
#208 = CARTESIAN_POINT ( 'NONE',  ( 1.396592535537253342E-14, 0.4659999999999995812, 4.000000000000000000 ) ) ;
#209 = CALENDAR_DATE ( 2021, 16, 12 ) ;
#210 = CALENDAR_DATE ( 2021, 16, 12 ) ;
#211 = ORGANIZATION ( 'UNSPECIFIED', 'UNSPECIFIED', '' ) ;
#212 = CARTESIAN_POINT ( 'NONE',  ( 2.358499820793711609E-15, -8.272503777097784655E-17, 0.6755011961699833867 ) ) ;
#213 = EDGE_LOOP ( 'NONE', ( #3 ) ) ;
#214 = CC_DESIGN_PERSON_AND_ORGANIZATION_ASSIGNMENT ( #86, #66, ( #231 ) ) ;
#215 = DIRECTION ( 'NONE',  ( -3.491481338843133355E-15, 1.224646799147353207E-16, -1.000000000000000000 ) ) ;
#216 = APPROVAL_DATE_TIME ( #232, #34 ) ;
#217 = DIRECTION ( 'NONE',  ( -3.491481338843133355E-15, 1.224646799147353207E-16, -1.000000000000000000 ) ) ;
#218 = FACE_OUTER_BOUND ( 'NONE', #233, .T. ) ;
#219 = AXIS2_PLACEMENT_3D ( 'NONE', #264, #118, #183 ) ;
#220 = LOCAL_TIME ( 11, 16, 20.00000000000000000, #15 ) ;
#221 = PLANE ( 'NONE',  #173 ) ;
#222 = DIRECTION ( 'NONE',  ( 0.0000000000000000000, 1.000000000000000000, 0.0000000000000000000 ) ) ;
#223 = ADVANCED_FACE ( 'NONE', ( #27, #237 ), #198, .T. ) ;
#224 = CARTESIAN_POINT ( 'NONE',  ( 1.042207179644675275E-13, -3.655570695454848748E-15, 29.84999999999999787 ) ) ;
#225 = CARTESIAN_POINT ( 'NONE',  ( 0.0000000000000000000, 0.0000000000000000000, 0.0000000000000000000 ) ) ;
#226 = FACE_OUTER_BOUND ( 'NONE', #267, .T. ) ;
#227 = EDGE_CURVE ( 'NONE', #172, #172, #134, .T. ) ;
#228 = CARTESIAN_POINT ( 'NONE',  ( 0.0000000000000000000, 0.0000000000000000000, 0.0000000000000000000 ) ) ;
#229 = COORDINATED_UNIVERSAL_TIME_OFFSET ( 1, 0, .AHEAD. ) ;
#230 = DIRECTION ( 'NONE',  ( 0.0000000000000000000, 0.0000000000000000000, 1.000000000000000000 ) ) ;
#231 = SECURITY_CLASSIFICATION ( '', '', #275 ) ;
#232 = DATE_AND_TIME ( #29, #103 ) ;
#233 = EDGE_LOOP ( 'NONE', ( #123 ) ) ;
#234 = APPROVAL_PERSON_ORGANIZATION ( #259, #34, #190 ) ;
#235 = APPLICATION_CONTEXT ( 'configuration controlled 3d designs of mechanical parts and assemblies' ) ;
#236 = CARTESIAN_POINT ( 'NONE',  ( 1.396592535537253342E-14, -4.898587196589412829E-16, 4.000000000000000000 ) ) ;
#237 = FACE_OUTER_BOUND ( 'NONE', #258, .T. ) ;
#238 = ORIENTED_EDGE ( 'NONE', *, *, #45, .F. ) ;
#239 = DIRECTION ( 'NONE',  ( 8.265793752734923831E-31, 1.000000000000000000, 2.326614104046148545E-16 ) ) ;
#240 = FACE_OUTER_BOUND ( 'NONE', #181, .T. ) ;
#241 = EDGE_CURVE ( 'NONE', #49, #49, #282, .T. ) ;
#242 = CARTESIAN_POINT ( 'NONE',  ( 1.640996229256272677E-14, 0.4659999999999995812, 4.700000000000000178 ) ) ;
#243 = FACE_OUTER_BOUND ( 'NONE', #213, .T. ) ;
#244 = PERSON_AND_ORGANIZATION ( #68, #211 ) ;
#245 = ORIENTED_EDGE ( 'NONE', *, *, #279, .F. ) ;
#246 = EDGE_CURVE ( 'NONE', #43, #43, #87, .T. ) ;
#247 = ORIENTED_EDGE ( 'NONE', *, *, #227, .F. ) ;
#248 = DIRECTION ( 'NONE',  ( 0.0000000000000000000, 1.000000000000000000, 0.0000000000000000000 ) ) ;
#249 =( NAMED_UNIT ( * ) SI_UNIT ( $, .STERADIAN. ) SOLID_ANGLE_UNIT ( ) );
#250 =( LENGTH_UNIT ( ) NAMED_UNIT ( * ) SI_UNIT ( .MILLI., .METRE. ) );
#251 = APPROVAL ( #39, 'UNSPECIFIED' ) ;
#252 = CIRCLE ( 'NONE', #143, 0.2849999999999999201 ) ;
#253 = LOCAL_TIME ( 11, 16, 20.00000000000000000, #165 ) ;
#254 = DATE_TIME_ROLE ( 'creation_date' ) ;
#255 = APPROVAL_ROLE ( '' ) ;
#256 = ORIENTED_EDGE ( 'NONE', *, *, #22, .F. ) ;
#257 = AXIS2_PLACEMENT_3D ( 'NONE', #141, #56, #174 ) ;
#258 = EDGE_LOOP ( 'NONE', ( #152 ) ) ;
#259 = PERSON_AND_ORGANIZATION ( #68, #211 ) ;
#260 = CARTESIAN_POINT ( 'NONE',  ( 1.042207179644675275E-13, 0.7499999999999962252, 29.84999999999999787 ) ) ;
#261 = PRODUCT_DEFINITION_FORMATION_WITH_SPECIFIED_SOURCE ( 'ANY', '', #79, .NOT_KNOWN. ) ;
#262 = DIRECTION ( 'NONE',  ( -3.491481338843133355E-15, 1.224646799147353207E-16, -1.000000000000000000 ) ) ;
#263 = CARTESIAN_POINT ( 'NONE',  ( 1.047444401652940007E-13, -3.673940397442059178E-15, 30.00000000000000000 ) ) ;
#264 = CARTESIAN_POINT ( 'NONE',  ( -6.093059810403165445E-32, 2.137157690293146612E-33, -1.745121688784977846E-17 ) ) ;
#265 = ADVANCED_FACE ( 'NONE', ( #52, #196 ), #64, .T. ) ;
#266 = VERTEX_POINT ( 'NONE', #242 ) ;
#267 = EDGE_LOOP ( 'NONE', ( #176 ) ) ;
#268 = AXIS2_PLACEMENT_3D ( 'NONE', #32, #215, #194 ) ;
#269 = AXIS2_PLACEMENT_3D ( 'NONE', #76, #180, #71 ) ;
#270 = VERTEX_POINT ( 'NONE', #81 ) ;
#271 = PLANE ( 'NONE',  #219 ) ;
#272 = AXIS2_PLACEMENT_3D ( 'NONE', #73, #156, #142 ) ;
#273 = CALENDAR_DATE ( 2021, 16, 12 ) ;
#274 = ADVANCED_FACE ( 'NONE', ( #135 ), #221, .F. ) ;
#275 = SECURITY_CLASSIFICATION_LEVEL ( 'unclassified' ) ;
#276 = APPLICATION_PROTOCOL_DEFINITION ( 'international standard', 'config_control_design', 1994, #70 ) ;
#277 = PRODUCT_RELATED_PRODUCT_CATEGORY ( 'detail', '', ( #79 ) ) ;
#278 = APPROVAL_DATE_TIME ( #58, #251 ) ;
#279 = EDGE_CURVE ( 'NONE', #146, #146, #195, .T. ) ;
#280 = CARTESIAN_POINT ( 'NONE',  ( 2.358499820793712004E-15, 0.4659999999999995812, 0.6755011961699834977 ) ) ;
#281 = COORDINATED_UNIVERSAL_TIME_OFFSET ( 1, 0, .AHEAD. ) ;
#282 = CIRCLE ( 'NONE', #111, 0.4660000000000000253 ) ;
#283 = ORIENTED_EDGE ( 'NONE', *, *, #62, .T. ) ;
ENDSEC;
END-ISO-10303-21;
