ISO-10303-21;
HEADER;
FILE_DESCRIPTION (( 'STEP AP203' ),
    '1' );
FILE_NAME ('62338.step',
    '2021-12-16T11:55:57',
    ( '' ),
    ( '' ),
    'SwSTEP 2.0',
    'SolidWorks 2019',
    '' );
FILE_SCHEMA (( 'CONFIG_CONTROL_DESIGN' ));
ENDSEC;

DATA;
#1 = FACE_OUTER_BOUND ( 'NONE', #12, .T. ) ;
#2 = CLOSED_SHELL ( 'NONE', ( #15, #19, #220, #86 ) ) ;
#3 = DIRECTION ( 'NONE',  ( 4.275831445896958607E-31, 1.000000000000000000, 1.224646799147353454E-16 ) ) ;
#4 = ADVANCED_FACE ( 'NONE', ( #277 ), #64, .F. ) ;
#5 = VERTEX_POINT ( 'NONE', #268 ) ;
#6 = APPLICATION_CONTEXT ( 'configuration controlled 3d designs of mechanical parts and assemblies' ) ;
#7 = ORIENTED_EDGE ( 'NONE', *, *, #217, .F. ) ;
#8 = AXIS2_PLACEMENT_3D ( 'NONE', #251, #143, #146 ) ;
#9 = EDGE_LOOP ( 'NONE', ( #159 ) ) ;
#10 = ORIENTED_EDGE ( 'NONE', *, *, #126, .F. ) ;
#11 = MECHANICAL_CONTEXT ( 'NONE', #116, 'mechanical' ) ;
#12 = EDGE_LOOP ( 'NONE', ( #119 ) ) ;
#13 = COORDINATED_UNIVERSAL_TIME_OFFSET ( 1, 0, .AHEAD. ) ;
#14 = FACE_OUTER_BOUND ( 'NONE', #111, .T. ) ;
#15 = ADVANCED_FACE ( 'NONE', ( #14 ), #225, .F. ) ;
#16 = CALENDAR_DATE ( 2021, 16, 12 ) ;
#17 = CARTESIAN_POINT ( 'NONE',  ( 2.078346527163517073E-15, -7.289858300812681302E-17, 0.5952621038072498649 ) ) ;
#18 = DIRECTION ( 'NONE',  ( 4.275831445896958607E-31, 1.000000000000000000, 1.224646799147353207E-16 ) ) ;
#19 = ADVANCED_FACE ( 'NONE', ( #260, #78 ), #35, .T. ) ;
#20 = AXIS2_PLACEMENT_3D ( 'NONE', #31, #226, #33 ) ;
#21 = DIRECTION ( 'NONE',  ( -3.491481338843133355E-15, 1.224646799147353207E-16, -1.000000000000000000 ) ) ;
#22 = DIRECTION ( 'NONE',  ( -3.491481338843133355E-15, 1.224646799147353207E-16, -1.000000000000000000 ) ) ;
#23 = ADVANCED_FACE ( 'NONE', ( #1, #123 ), #211, .F. ) ;
#24 = CARTESIAN_POINT ( 'NONE',  ( -4.731839565957903391E-32, 0.2550000000000000600, -1.355252715606880543E-17 ) ) ;
#25 = PRODUCT_DEFINITION_FORMATION_WITH_SPECIFIED_SOURCE ( 'ANY', '', #135, .NOT_KNOWN. ) ;
#26 = ORIENTED_EDGE ( 'NONE', *, *, #192, .F. ) ;
#27 = EDGE_LOOP ( 'NONE', ( #249 ) ) ;
#28 = APPROVAL_DATE_TIME ( #186, #215 ) ;
#29 = EDGE_LOOP ( 'NONE', ( #88 ) ) ;
#30 = DATE_TIME_ROLE ( 'creation_date' ) ;
#31 = CARTESIAN_POINT ( 'NONE',  ( -7.817604876497575441E-32, 2.742046672995731139E-33, -2.239051026716315851E-17 ) ) ;
#32 = CC_DESIGN_DATE_AND_TIME_ASSIGNMENT ( #141, #272, ( #274 ) ) ;
#33 = DIRECTION ( 'NONE',  ( -4.275831445896958607E-31, -1.000000000000000000, -1.224646799147353207E-16 ) ) ;
#34 = COORDINATED_UNIVERSAL_TIME_OFFSET ( 1, 0, .AHEAD. ) ;
#35 = CONICAL_SURFACE ( 'NONE', #265, 0.4144999999999994245, 0.2617993877991426355 ) ;
#36 = DIRECTION ( 'NONE',  ( 4.275831445896958607E-31, 1.000000000000000000, 1.224646799147353207E-16 ) ) ;
#37 = DIRECTION ( 'NONE',  ( 4.275831445896958607E-31, 1.000000000000000000, 1.224646799147353207E-16 ) ) ;
#38 = CYLINDRICAL_SURFACE ( 'NONE', #269, 0.4144999999999999241 ) ;
#39 = CC_DESIGN_APPROVAL ( #215, ( #274 ) ) ;
#40 = DIRECTION ( 'NONE',  ( 3.491481338843133355E-15, -1.224646799147353207E-16, 1.000000000000000000 ) ) ;
#41 = CARTESIAN_POINT ( 'NONE',  ( 0.0000000000000000000, 0.0000000000000000000, 0.0000000000000000000 ) ) ;
#42 = DIRECTION ( 'NONE',  ( -3.491481338843133355E-15, 1.224646799147353207E-16, -1.000000000000000000 ) ) ;
#43 = CC_DESIGN_DATE_AND_TIME_ASSIGNMENT ( #94, #30, ( #198 ) ) ;
#44 = CC_DESIGN_PERSON_AND_ORGANIZATION_ASSIGNMENT ( #163, #63, ( #25 ) ) ;
#45 = VERTEX_POINT ( 'NONE', #153 ) ;
#46 = CC_DESIGN_APPROVAL ( #258, ( #25 ) ) ;
#47 = APPROVAL_STATUS ( 'not_yet_approved' ) ;
#48 = DIRECTION ( 'NONE',  ( 1.000000000000000000, 0.0000000000000000000, 0.0000000000000000000 ) ) ;
#49 = ORIENTED_EDGE ( 'NONE', *, *, #253, .T. ) ;
#50 = CALENDAR_DATE ( 2021, 16, 12 ) ;
#51 = PERSON ( 'UNSPECIFIED', 'UNSPECIFIED', 'UNSPECIFIED', ('UNSPECIFIED'), ('UNSPECIFIED'), ('UNSPECIFIED') ) ;
#52 = DIRECTION ( 'NONE',  ( -3.491481338843133355E-15, 1.224646799147353207E-16, -1.000000000000000000 ) ) ;
#53 = APPROVAL_PERSON_ORGANIZATION ( #244, #171, #208 ) ;
#54 = SHAPE_DEFINITION_REPRESENTATION ( #134, #104 ) ;
#55 = CARTESIAN_POINT ( 'NONE',  ( 2.078346527163517073E-15, -7.289858300812681302E-17, 0.5952621038072498649 ) ) ;
#56 = DIRECTION ( 'NONE',  ( -3.491481338843133355E-15, 1.224646799147353207E-16, -1.000000000000000000 ) ) ;
#57 = FACE_OUTER_BOUND ( 'NONE', #221, .T. ) ;
#58 = DIRECTION ( 'NONE',  ( 0.0000000000000000000, 1.000000000000000000, 0.0000000000000000000 ) ) ;
#59 = CARTESIAN_POINT ( 'NONE',  ( 1.396592535537253342E-14, 0.4144999999999993689, 4.000000000000000000 ) ) ;
#60 = VERTEX_POINT ( 'NONE', #216 ) ;
#61 = VERTEX_POINT ( 'NONE', #158 ) ;
#62 = EDGE_LOOP ( 'NONE', ( #26 ) ) ;
#63 = PERSON_AND_ORGANIZATION_ROLE ( 'creator' ) ;
#64 = PLANE ( 'NONE',  #81 ) ;
#65 = ADVANCED_FACE ( 'NONE', ( #168, #72 ), #89, .T. ) ;
#66 = COORDINATED_UNIVERSAL_TIME_OFFSET ( 1, 0, .AHEAD. ) ;
#67 = COORDINATED_UNIVERSAL_TIME_OFFSET ( 1, 0, .AHEAD. ) ;
#68 = PERSON_AND_ORGANIZATION ( #51, #124 ) ;
#69 = DIRECTION ( 'NONE',  ( -3.491481338843133355E-15, 1.224646799147353207E-16, -1.000000000000000000 ) ) ;
#70 = PERSON_AND_ORGANIZATION_ROLE ( 'design_owner' ) ;
#71 = AXIS2_PLACEMENT_3D ( 'NONE', #73, #172, #257 ) ;
#72 = FACE_BOUND ( 'NONE', #271, .T. ) ;
#73 = CARTESIAN_POINT ( 'NONE',  ( 1.396592535537253342E-14, 3.108252149566692065E-33, 4.000000000000000000 ) ) ;
#74 = DIRECTION ( 'NONE',  ( 0.0000000000000000000, 1.000000000000000000, 0.0000000000000000000 ) ) ;
#75 = EDGE_CURVE ( 'NONE', #82, #82, #245, .T. ) ;
#76 = LOCAL_TIME ( 12, 55, 57.00000000000000000, #67 ) ;
#77 = AXIS2_PLACEMENT_3D ( 'NONE', #282, #22, #37 ) ;
#78 = FACE_OUTER_BOUND ( 'NONE', #242, .T. ) ;
#79 = CARTESIAN_POINT ( 'NONE',  ( 2.258265443351736693E-14, -7.920928907906260713E-16, 6.467929294733076873 ) ) ;
#80 = APPROVAL_PERSON_ORGANIZATION ( #95, #258, #118 ) ;
#81 = AXIS2_PLACEMENT_3D ( 'NONE', #162, #247, #138 ) ;
#82 = VERTEX_POINT ( 'NONE', #24 ) ;
#83 = AXIS2_PLACEMENT_3D ( 'NONE', #129, #193, #3 ) ;
#84 = DIRECTION ( 'NONE',  ( -3.491481338843133355E-15, 1.224646799147353207E-16, -1.000000000000000000 ) ) ;
#85 = VERTEX_POINT ( 'NONE', #177 ) ;
#86 = ADVANCED_FACE ( 'NONE', ( #57 ), #278, .T. ) ;
#87 = CIRCLE ( 'NONE', #212, 0.7499999999999971134 ) ;
#88 = ORIENTED_EDGE ( 'NONE', *, *, #75, .F. ) ;
#89 = CONICAL_SURFACE ( 'NONE', #131, 0.6000000000000000888, 0.7853981633974450594 ) ;
#90 = ORIENTED_EDGE ( 'NONE', *, *, #184, .F. ) ;
#91 = CALENDAR_DATE ( 2021, 16, 12 ) ;
#92 = ADVANCED_FACE ( 'NONE', ( #231, #210 ), #239, .T. ) ;
#93 = ORIENTED_EDGE ( 'NONE', *, *, #253, .F. ) ;
#94 = DATE_AND_TIME ( #16, #130 ) ;
#95 = PERSON_AND_ORGANIZATION ( #51, #124 ) ;
#96 = EDGE_LOOP ( 'NONE', ( #90 ) ) ;
#97 = APPLICATION_PROTOCOL_DEFINITION ( 'international standard', 'config_control_design', 1994, #6 ) ;
#98 = DIRECTION ( 'NONE',  ( 0.0000000000000000000, 1.000000000000000000, 0.0000000000000000000 ) ) ;
#99 = SECURITY_CLASSIFICATION_LEVEL ( 'unclassified' ) ;
#100 = CC_DESIGN_PERSON_AND_ORGANIZATION_ASSIGNMENT ( #167, #185, ( #25 ) ) ;
#101 = DIRECTION ( 'NONE',  ( 0.0000000000000000000, 1.000000000000000000, 0.0000000000000000000 ) ) ;
#102 = LOCAL_TIME ( 12, 55, 57.00000000000000000, #34 ) ;
#103 = CARTESIAN_POINT ( 'NONE',  ( 0.0000000000000000000, 0.0000000000000000000, 0.0000000000000000000 ) ) ;
#104 = ADVANCED_BREP_SHAPE_REPRESENTATION ( '62338', ( #237, #240, #110 ), #236 ) ;
#105 = DIRECTION ( 'NONE',  ( -3.491481338843133355E-15, 1.224646799147353207E-16, -1.000000000000000000 ) ) ;
#106 = CARTESIAN_POINT ( 'NONE',  ( -1.563520975299515088E-31, 5.484093345991462279E-33, -4.478102053432631702E-17 ) ) ;
#107 = AXIS2_PLACEMENT_3D ( 'NONE', #120, #56, #189 ) ;
#108 = CYLINDRICAL_SURFACE ( 'NONE', #83, 0.7499999999999984457 ) ;
#109 = ORIENTED_EDGE ( 'NONE', *, *, #233, .T. ) ;
#110 = AXIS2_PLACEMENT_3D ( 'NONE', #204, #201, #48 ) ;
#111 = EDGE_LOOP ( 'NONE', ( #273 ) ) ;
#112 = CIRCLE ( 'NONE', #125, 0.6000000000000000888 ) ;
#113 = DATE_AND_TIME ( #160, #142 ) ;
#114 = PRODUCT_RELATED_PRODUCT_CATEGORY ( 'detail', '', ( #135 ) ) ;
#115 = EDGE_LOOP ( 'NONE', ( #93 ) ) ;
#116 = APPLICATION_CONTEXT ( 'configuration controlled 3d designs of mechanical parts and assemblies' ) ;
#117 = EDGE_LOOP ( 'NONE', ( #164 ) ) ;
#118 = APPROVAL_ROLE ( '' ) ;
#119 = ORIENTED_EDGE ( 'NONE', *, *, #133, .F. ) ;
#120 = CARTESIAN_POINT ( 'NONE',  ( 1.042207179644675275E-13, -3.655570695454848748E-15, 29.84999999999999787 ) ) ;
#121 = CC_DESIGN_PERSON_AND_ORGANIZATION_ASSIGNMENT ( #165, #200, ( #274 ) ) ;
#122 = DIRECTION ( 'NONE',  ( -3.491481338843133355E-15, 1.224646799147353207E-16, -1.000000000000000000 ) ) ;
#123 = FACE_OUTER_BOUND ( 'NONE', #181, .T. ) ;
#124 = ORGANIZATION ( 'UNSPECIFIED', 'UNSPECIFIED', '' ) ;
#125 = AXIS2_PLACEMENT_3D ( 'NONE', #213, #256, #58 ) ;
#126 = EDGE_CURVE ( 'NONE', #60, #60, #176, .T. ) ;
#127 = CARTESIAN_POINT ( 'NONE',  ( 2.258265443351736693E-14, -7.920928907906260713E-16, 6.467929294733076873 ) ) ;
#128 = FACE_OUTER_BOUND ( 'NONE', #117, .T. ) ;
#129 = CARTESIAN_POINT ( 'NONE',  ( 0.0000000000000000000, 0.0000000000000000000, 0.0000000000000000000 ) ) ;
#130 = LOCAL_TIME ( 12, 55, 57.00000000000000000, #66 ) ;
#131 = AXIS2_PLACEMENT_3D ( 'NONE', #229, #69, #190 ) ;
#132 = DIRECTION ( 'NONE',  ( 0.0000000000000000000, 1.000000000000000000, 0.0000000000000000000 ) ) ;
#133 = EDGE_CURVE ( 'NONE', #191, #191, #157, .T. ) ;
#134 = PRODUCT_DEFINITION_SHAPE ( 'NONE', 'NONE',  #198 ) ;
#135 = PRODUCT ( '62338', '62338', '', ( #11 ) ) ;
#136 = ORIENTED_EDGE ( 'NONE', *, *, #192, .T. ) ;
#137 = APPROVAL_STATUS ( 'not_yet_approved' ) ;
#138 = DIRECTION ( 'NONE',  ( 4.275831445896958607E-31, 1.000000000000000000, 1.224646799147353207E-16 ) ) ;
#139 = DATE_AND_TIME ( #91, #76 ) ;
#140 = EDGE_LOOP ( 'NONE', ( #178 ) ) ;
#141 = DATE_AND_TIME ( #50, #280 ) ;
#142 = LOCAL_TIME ( 12, 55, 57.00000000000000000, #13 ) ;
#143 = DIRECTION ( 'NONE',  ( 3.491481338843133355E-15, -1.224646799147353207E-16, 1.000000000000000000 ) ) ;
#144 = CIRCLE ( 'NONE', #232, 0.4144999999999998685 ) ;
#145 = DIRECTION ( 'NONE',  ( -3.491481338843133355E-15, 1.224646799147353207E-16, -1.000000000000000000 ) ) ;
#146 = DIRECTION ( 'NONE',  ( -4.275831445896958607E-31, -1.000000000000000000, -1.224646799147353207E-16 ) ) ;
#147 = DESIGN_CONTEXT ( 'detailed design', #6, 'design' ) ;
#148 = CARTESIAN_POINT ( 'NONE',  ( 1.396592535537253342E-14, -4.898587196589412829E-16, 4.000000000000000000 ) ) ;
#149 = FACE_OUTER_BOUND ( 'NONE', #27, .T. ) ;
#150 = DIRECTION ( 'NONE',  ( 4.275831445896958607E-31, 1.000000000000000000, 1.224646799147353207E-16 ) ) ;
#151 = CC_DESIGN_PERSON_AND_ORGANIZATION_ASSIGNMENT ( #68, #279, ( #198 ) ) ;
#152 = CIRCLE ( 'NONE', #107, 0.7499999999999998890 ) ;
#153 = CARTESIAN_POINT ( 'NONE',  ( 1.047444401652940007E-13, 0.5999999999999963141, 30.00000000000000000 ) ) ;
#154 = ADVANCED_FACE ( 'NONE', ( #128, #187 ), #38, .T. ) ;
#155 = CARTESIAN_POINT ( 'NONE',  ( 1.798112889504213678E-14, 0.4144999999999993689, 5.150000000000000355 ) ) ;
#156 = CIRCLE ( 'NONE', #183, 0.4315370868554652684 ) ;
#157 = CIRCLE ( 'NONE', #161, 0.4145000000000000351 ) ;
#158 = CARTESIAN_POINT ( 'NONE',  ( 2.258265443351736693E-14, 0.7499999999999963363, 6.467929294733076873 ) ) ;
#159 = ORIENTED_EDGE ( 'NONE', *, *, #133, .T. ) ;
#160 = CALENDAR_DATE ( 2021, 16, 12 ) ;
#161 = AXIS2_PLACEMENT_3D ( 'NONE', #207, #122, #98 ) ;
#162 = CARTESIAN_POINT ( 'NONE',  ( 1.047444401652940007E-13, 4.499279347985518085E-33, 30.00000000000000000 ) ) ;
#163 = PERSON_AND_ORGANIZATION ( #51, #124 ) ;
#164 = ORIENTED_EDGE ( 'NONE', *, *, #175, .F. ) ;
#165 = PERSON_AND_ORGANIZATION ( #51, #124 ) ;
#166 = EDGE_LOOP ( 'NONE', ( #10 ) ) ;
#167 = PERSON_AND_ORGANIZATION ( #51, #124 ) ;
#168 = FACE_OUTER_BOUND ( 'NONE', #62, .T. ) ;
#169 = AXIS2_PLACEMENT_3D ( 'NONE', #106, #52, #18 ) ;
#170 = DIRECTION ( 'NONE',  ( 3.491481338843133355E-15, -1.224646799147353207E-16, 1.000000000000000000 ) ) ;
#171 = APPROVAL ( #275, 'UNSPECIFIED' ) ;
#172 = DIRECTION ( 'NONE',  ( 3.491481338843133355E-15, -1.224646799147353207E-16, 1.000000000000000000 ) ) ;
#173 = UNCERTAINTY_MEASURE_WITH_UNIT (LENGTH_MEASURE( 1.000000000000000082E-05 ), #261, 'distance_accuracy_value', 'NONE');
#174 = FACE_OUTER_BOUND ( 'NONE', #166, .T. ) ;
#175 = EDGE_CURVE ( 'NONE', #219, #219, #144, .T. ) ;
#176 = CIRCLE ( 'NONE', #281, 0.4144999999999994245 ) ;
#177 = CARTESIAN_POINT ( 'NONE',  ( 1.396592535537253342E-14, 0.4144999999999993689, 4.000000000000000000 ) ) ;
#178 = ORIENTED_EDGE ( 'NONE', *, *, #175, .T. ) ;
#179 = EDGE_LOOP ( 'NONE', ( #109 ) ) ;
#180 = APPROVAL_DATE_TIME ( #139, #171 ) ;
#181 = EDGE_LOOP ( 'NONE', ( #49 ) ) ;
#182 = APPROVAL_DATE_TIME ( #113, #258 ) ;
#183 = AXIS2_PLACEMENT_3D ( 'NONE', #263, #84, #132 ) ;
#184 = EDGE_CURVE ( 'NONE', #45, #45, #112, .T. ) ;
#185 = PERSON_AND_ORGANIZATION_ROLE ( 'design_supplier' ) ;
#186 = DATE_AND_TIME ( #218, #102 ) ;
#187 = FACE_OUTER_BOUND ( 'NONE', #9, .T. ) ;
#188 = DIRECTION ( 'NONE',  ( 0.0000000000000000000, -1.000000000000000000, 0.0000000000000000000 ) ) ;
#189 = DIRECTION ( 'NONE',  ( 0.0000000000000000000, 1.000000000000000000, 0.0000000000000000000 ) ) ;
#190 = DIRECTION ( 'NONE',  ( 0.0000000000000000000, 1.000000000000000000, 0.0000000000000000000 ) ) ;
#191 = VERTEX_POINT ( 'NONE', #155 ) ;
#192 = EDGE_CURVE ( 'NONE', #5, #5, #152, .T. ) ;
#193 = DIRECTION ( 'NONE',  ( -3.491481338843133355E-15, 1.224646799147353207E-16, -1.000000000000000000 ) ) ;
#194 = CC_DESIGN_SECURITY_CLASSIFICATION ( #274, ( #25 ) ) ;
#195 = DIRECTION ( 'NONE',  ( 0.0000000000000000000, 1.000000000000000000, 0.0000000000000000000 ) ) ;
#196 = DIRECTION ( 'NONE',  ( -3.491481338843133355E-15, 1.224646799147353207E-16, -1.000000000000000000 ) ) ;
#197 = EDGE_LOOP ( 'NONE', ( #243 ) ) ;
#198 = PRODUCT_DEFINITION ( 'UNKNOWN', '', #25, #147 ) ;
#199 = AXIS2_PLACEMENT_3D ( 'NONE', #127, #170, #230 ) ;
#200 = PERSON_AND_ORGANIZATION_ROLE ( 'classification_officer' ) ;
#201 = DIRECTION ( 'NONE',  ( 0.0000000000000000000, 0.0000000000000000000, 1.000000000000000000 ) ) ;
#202 = ADVANCED_FACE ( 'NONE', ( #214 ), #283, .F. ) ;
#203 = ORIENTED_EDGE ( 'NONE', *, *, #126, .T. ) ;
#204 = CARTESIAN_POINT ( 'NONE',  ( 0.0000000000000000000, 0.0000000000000000000, 0.0000000000000000000 ) ) ;
#205 = CLOSED_SHELL ( 'NONE', ( #202, #154, #23, #92, #267, #65, #4 ) ) ;
#206 = ORIENTED_EDGE ( 'NONE', *, *, #184, .T. ) ;
#207 = CARTESIAN_POINT ( 'NONE',  ( 1.798112889504213678E-14, -6.306931015608868610E-16, 5.150000000000000355 ) ) ;
#208 = APPROVAL_ROLE ( '' ) ;
#209 = DIRECTION ( 'NONE',  ( -3.491481338843133355E-15, 1.224646799147353207E-16, -1.000000000000000000 ) ) ;
#210 = FACE_OUTER_BOUND ( 'NONE', #179, .T. ) ;
#211 = TOROIDAL_SURFACE ( 'NONE', #77, 0.9145000000000000906, 0.4999999999999998890 ) ;
#212 = AXIS2_PLACEMENT_3D ( 'NONE', #79, #196, #195 ) ;
#213 = CARTESIAN_POINT ( 'NONE',  ( 1.047444401652940007E-13, -3.673940397442059178E-15, 30.00000000000000000 ) ) ;
#214 = FACE_OUTER_BOUND ( 'NONE', #140, .T. ) ;
#215 = APPROVAL ( #137, 'UNSPECIFIED' ) ;
#216 = CARTESIAN_POINT ( 'NONE',  ( 2.078346527163517073E-15, 0.4144999999999993689, 0.5952621038072498649 ) ) ;
#217 = EDGE_CURVE ( 'NONE', #85, #85, #254, .T. ) ;
#218 = CALENDAR_DATE ( 2021, 16, 12 ) ;
#219 = VERTEX_POINT ( 'NONE', #59 ) ;
#220 = ADVANCED_FACE ( 'NONE', ( #174, #149 ), #234, .T. ) ;
#221 = EDGE_LOOP ( 'NONE', ( #7 ) ) ;
#222 = EDGE_LOOP ( 'NONE', ( #136 ) ) ;
#223 = APPROVAL_PERSON_ORGANIZATION ( #227, #215, #252 ) ;
#224 = PERSON_AND_ORGANIZATION ( #51, #124 ) ;
#225 = PLANE ( 'NONE',  #20 ) ;
#226 = DIRECTION ( 'NONE',  ( 3.491481338843133355E-15, -1.224646799147353207E-16, 1.000000000000000000 ) ) ;
#227 = PERSON_AND_ORGANIZATION ( #51, #124 ) ;
#228 = DIRECTION ( 'NONE',  ( 0.0000000000000000000, 1.000000000000000000, 0.0000000000000000000 ) ) ;
#229 = CARTESIAN_POINT ( 'NONE',  ( 1.047444401652940007E-13, -3.673940397442059178E-15, 30.00000000000000000 ) ) ;
#230 = DIRECTION ( 'NONE',  ( 0.0000000000000000000, -1.000000000000000000, 0.0000000000000000000 ) ) ;
#231 = FACE_BOUND ( 'NONE', #115, .T. ) ;
#232 = AXIS2_PLACEMENT_3D ( 'NONE', #255, #209, #101 ) ;
#233 = EDGE_CURVE ( 'NONE', #61, #61, #87, .T. ) ;
#234 = CYLINDRICAL_SURFACE ( 'NONE', #264, 0.4144999999999996465 ) ;
#235 =( NAMED_UNIT ( * ) PLANE_ANGLE_UNIT ( ) SI_UNIT ( $, .RADIAN. ) );
#236 =( GEOMETRIC_REPRESENTATION_CONTEXT ( 3 ) GLOBAL_UNCERTAINTY_ASSIGNED_CONTEXT ( ( #173 ) ) GLOBAL_UNIT_ASSIGNED_CONTEXT ( ( #261, #235, #259 ) ) REPRESENTATION_CONTEXT ( 'NONE', 'WORKASPACE' ) );
#237 = MANIFOLD_SOLID_BREP ( 'Corps-Déplacer/Copier1[1]', #205 ) ;
#238 = FACE_OUTER_BOUND ( 'NONE', #222, .T. ) ;
#239 = CONICAL_SURFACE ( 'NONE', #199, 0.7499999999999971134, 0.2617993877991423579 ) ;
#240 = MANIFOLD_SOLID_BREP ( 'Corps-Déplacer/Copier1[2]', #2 ) ;
#241 = VERTEX_POINT ( 'NONE', #262 ) ;
#242 = EDGE_LOOP ( 'NONE', ( #203 ) ) ;
#243 = ORIENTED_EDGE ( 'NONE', *, *, #233, .F. ) ;
#244 = PERSON_AND_ORGANIZATION ( #51, #124 ) ;
#245 = CIRCLE ( 'NONE', #169, 0.2550000000000000600 ) ;
#246 = CC_DESIGN_APPROVAL ( #171, ( #198 ) ) ;
#247 = DIRECTION ( 'NONE',  ( -3.491481338843133355E-15, 1.224646799147353207E-16, -1.000000000000000000 ) ) ;
#248 = APPLICATION_PROTOCOL_DEFINITION ( 'international standard', 'config_control_design', 1994, #116 ) ;
#249 = ORIENTED_EDGE ( 'NONE', *, *, #217, .T. ) ;
#250 = COORDINATED_UNIVERSAL_TIME_OFFSET ( 1, 0, .AHEAD. ) ;
#251 = CARTESIAN_POINT ( 'NONE',  ( 1.396592535537253342E-14, 3.108252149566692065E-33, 4.000000000000000000 ) ) ;
#252 = APPROVAL_ROLE ( '' ) ;
#253 = EDGE_CURVE ( 'NONE', #241, #241, #156, .T. ) ;
#254 = CIRCLE ( 'NONE', #276, 0.4144999999999998685 ) ;
#255 = CARTESIAN_POINT ( 'NONE',  ( 1.396592535537253342E-14, -4.898587196589412829E-16, 4.000000000000000000 ) ) ;
#256 = DIRECTION ( 'NONE',  ( -3.491481338843133355E-15, 1.224646799147353207E-16, -1.000000000000000000 ) ) ;
#257 = DIRECTION ( 'NONE',  ( -4.275831445896958607E-31, -1.000000000000000000, -1.224646799147353207E-16 ) ) ;
#258 = APPROVAL ( #47, 'UNSPECIFIED' ) ;
#259 =( NAMED_UNIT ( * ) SI_UNIT ( $, .STERADIAN. ) SOLID_ANGLE_UNIT ( ) );
#260 = FACE_BOUND ( 'NONE', #29, .T. ) ;
#261 =( LENGTH_UNIT ( ) NAMED_UNIT ( * ) SI_UNIT ( .MILLI., .METRE. ) );
#262 = CARTESIAN_POINT ( 'NONE',  ( 1.843295982809844654E-14, 0.4315370868554646022, 5.279409522551255840 ) ) ;
#263 = CARTESIAN_POINT ( 'NONE',  ( 1.843295982809844654E-14, -6.465411973180452204E-16, 5.279409522551255840 ) ) ;
#264 = AXIS2_PLACEMENT_3D ( 'NONE', #41, #42, #150 ) ;
#265 = AXIS2_PLACEMENT_3D ( 'NONE', #55, #40, #188 ) ;
#266 = FACE_OUTER_BOUND ( 'NONE', #197, .T. ) ;
#267 = ADVANCED_FACE ( 'NONE', ( #266, #238 ), #108, .T. ) ;
#268 = CARTESIAN_POINT ( 'NONE',  ( 1.042207179644675275E-13, 0.7499999999999962252, 29.84999999999999787 ) ) ;
#269 = AXIS2_PLACEMENT_3D ( 'NONE', #103, #21, #36 ) ;
#270 = CC_DESIGN_PERSON_AND_ORGANIZATION_ASSIGNMENT ( #224, #70, ( #135 ) ) ;
#271 = EDGE_LOOP ( 'NONE', ( #206 ) ) ;
#272 = DATE_TIME_ROLE ( 'classification_date' ) ;
#273 = ORIENTED_EDGE ( 'NONE', *, *, #75, .T. ) ;
#274 = SECURITY_CLASSIFICATION ( '', '', #99 ) ;
#275 = APPROVAL_STATUS ( 'not_yet_approved' ) ;
#276 = AXIS2_PLACEMENT_3D ( 'NONE', #148, #105, #74 ) ;
#277 = FACE_OUTER_BOUND ( 'NONE', #96, .T. ) ;
#278 = PLANE ( 'NONE',  #8 ) ;
#279 = PERSON_AND_ORGANIZATION_ROLE ( 'creator' ) ;
#280 = LOCAL_TIME ( 12, 55, 57.00000000000000000, #250 ) ;
#281 = AXIS2_PLACEMENT_3D ( 'NONE', #17, #145, #228 ) ;
#282 = CARTESIAN_POINT ( 'NONE',  ( 1.798112889504213678E-14, -6.505213034913026604E-16, 5.150000000000000355 ) ) ;
#283 = PLANE ( 'NONE',  #71 ) ;
ENDSEC;
END-ISO-10303-21;
