ISO-10303-21;
HEADER;
FILE_DESCRIPTION (( 'STEP AP203' ),
    '1' );
FILE_NAME ('62337.step',
    '2021-12-16T10:16:20',
    ( '' ),
    ( '' ),
    'SwSTEP 2.0',
    'SolidWorks 2019',
    '' );
FILE_SCHEMA (( 'CONFIG_CONTROL_DESIGN' ));
ENDSEC;

DATA;
#1 = DIRECTION ( 'NONE',  ( -3.491481338843133355E-15, 1.224646799147353207E-16, -1.000000000000000000 ) ) ;
#2 = PRODUCT_DEFINITION_SHAPE ( 'NONE', 'NONE',  #124 ) ;
#3 = DIRECTION ( 'NONE',  ( -3.491481338843133355E-15, 1.224646799147353207E-16, -1.000000000000000000 ) ) ;
#4 = AXIS2_PLACEMENT_3D ( 'NONE', #91, #1, #48 ) ;
#5 = DIRECTION ( 'NONE',  ( 3.491481338843133355E-15, -1.224646799147353207E-16, 1.000000000000000000 ) ) ;
#6 = COORDINATED_UNIVERSAL_TIME_OFFSET ( 1, 0, .AHEAD. ) ;
#7 = CARTESIAN_POINT ( 'NONE',  ( 1.909117309467423042E-14, 0.7499999999999963363, 5.467929294733075984 ) ) ;
#8 = EDGE_CURVE ( 'NONE', #262, #262, #209, .T. ) ;
#9 = MANIFOLD_SOLID_BREP ( 'Corps-Déplacer/Copier1[2]', #77 ) ;
#10 = AXIS2_PLACEMENT_3D ( 'NONE', #266, #115, #195 ) ;
#11 = DATE_AND_TIME ( #249, #154 ) ;
#12 = ADVANCED_FACE ( 'NONE', ( #248, #53 ), #43, .T. ) ;
#13 = ORIENTED_EDGE ( 'NONE', *, *, #132, .T. ) ;
#14 = FACE_OUTER_BOUND ( 'NONE', #279, .T. ) ;
#15 = DIRECTION ( 'NONE',  ( 3.491481338843133355E-15, -1.224646799147353207E-16, 1.000000000000000000 ) ) ;
#16 = EDGE_LOOP ( 'NONE', ( #211 ) ) ;
#17 = LOCAL_TIME ( 11, 16, 20.00000000000000000, #228 ) ;
#18 = DIRECTION ( 'NONE',  ( -4.275831445896958607E-31, -1.000000000000000000, -1.224646799147353207E-16 ) ) ;
#19 = PRODUCT ( '62337', '62337', '', ( #184 ) ) ;
#20 = APPROVAL_DATE_TIME ( #152, #162 ) ;
#21 = CYLINDRICAL_SURFACE ( 'NONE', #120, 0.7499999999999984457 ) ;
#22 = FACE_OUTER_BOUND ( 'NONE', #78, .T. ) ;
#23 = EDGE_CURVE ( 'NONE', #243, #243, #74, .T. ) ;
#24 = FACE_OUTER_BOUND ( 'NONE', #214, .T. ) ;
#25 = EDGE_CURVE ( 'NONE', #31, #31, #237, .T. ) ;
#26 = FACE_OUTER_BOUND ( 'NONE', #148, .T. ) ;
#27 = PRODUCT_DEFINITION_FORMATION_WITH_SPECIFIED_SOURCE ( 'ANY', '', #19, .NOT_KNOWN. ) ;
#28 = APPROVAL_STATUS ( 'not_yet_approved' ) ;
#29 = CLOSED_SHELL ( 'NONE', ( #229, #45, #234, #12, #155, #197, #165 ) ) ;
#30 = CARTESIAN_POINT ( 'NONE',  ( -4.731839565957903391E-32, 0.2550000000000000044, -1.355252715606880543E-17 ) ) ;
#31 = VERTEX_POINT ( 'NONE', #166 ) ;
#32 = CONICAL_SURFACE ( 'NONE', #4, 0.6000000000000000888, 0.7853981633974450594 ) ;
#33 = EDGE_CURVE ( 'NONE', #141, #141, #222, .T. ) ;
#34 = APPROVAL_ROLE ( '' ) ;
#35 = CALENDAR_DATE ( 2021, 16, 12 ) ;
#36 = DIRECTION ( 'NONE',  ( -3.491481338843133355E-15, 1.224646799147353207E-16, -1.000000000000000000 ) ) ;
#37 = DIRECTION ( 'NONE',  ( 4.275831445896958607E-31, 1.000000000000000000, 1.224646799147353207E-16 ) ) ;
#38 = LOCAL_TIME ( 11, 16, 20.00000000000000000, #6 ) ;
#39 = DIRECTION ( 'NONE',  ( 0.0000000000000000000, -1.000000000000000000, 0.0000000000000000000 ) ) ;
#40 = CC_DESIGN_PERSON_AND_ORGANIZATION_ASSIGNMENT ( #55, #270, ( #124 ) ) ;
#41 = DIRECTION ( 'NONE',  ( 0.0000000000000000000, 1.000000000000000000, 0.0000000000000000000 ) ) ;
#42 = EDGE_LOOP ( 'NONE', ( #61 ) ) ;
#43 = CONICAL_SURFACE ( 'NONE', #200, 0.7499999999999970024, 0.2617993877991426910 ) ;
#44 = CARTESIAN_POINT ( 'NONE',  ( -1.563520975299514869E-31, 5.484093345991461594E-33, -4.478102053432631085E-17 ) ) ;
#45 = ADVANCED_FACE ( 'NONE', ( #130, #14 ), #213, .T. ) ;
#46 = PLANE ( 'NONE',  #191 ) ;
#47 = DIRECTION ( 'NONE',  ( 0.0000000000000000000, 1.000000000000000000, 0.0000000000000000000 ) ) ;
#48 = DIRECTION ( 'NONE',  ( 0.0000000000000000000, 1.000000000000000000, 0.0000000000000000000 ) ) ;
#49 = EDGE_CURVE ( 'NONE', #52, #52, #231, .T. ) ;
#50 = DIRECTION ( 'NONE',  ( 1.000000000000000000, 0.0000000000000000000, 0.0000000000000000000 ) ) ;
#51 = ORGANIZATION ( 'UNSPECIFIED', 'UNSPECIFIED', '' ) ;
#52 = VERTEX_POINT ( 'NONE', #226 ) ;
#53 = FACE_OUTER_BOUND ( 'NONE', #57, .T. ) ;
#54 = APPLICATION_PROTOCOL_DEFINITION ( 'international standard', 'config_control_design', 1994, #80 ) ;
#55 = PERSON_AND_ORGANIZATION ( #81, #51 ) ;
#56 = CC_DESIGN_SECURITY_CLASSIFICATION ( #59, ( #27 ) ) ;
#57 = EDGE_LOOP ( 'NONE', ( #104 ) ) ;
#58 = EDGE_LOOP ( 'NONE', ( #212 ) ) ;
#59 = SECURITY_CLASSIFICATION ( '', '', #127 ) ;
#60 = CARTESIAN_POINT ( 'NONE',  ( 1.448964755619900342E-14, -5.082284216461515156E-16, 4.150000000000000355 ) ) ;
#61 = ORIENTED_EDGE ( 'NONE', *, *, #79, .F. ) ;
#62 = DIRECTION ( 'NONE',  ( -4.275831445896958607E-31, -1.000000000000000000, -1.224646799147353207E-16 ) ) ;
#63 = APPROVAL_PERSON_ORGANIZATION ( #70, #258, #118 ) ;
#64 = CARTESIAN_POINT ( 'NONE',  ( 1.042207179644675275E-13, 0.7499999999999962252, 29.84999999999999787 ) ) ;
#65 = SHAPE_DEFINITION_REPRESENTATION ( #2, #232 ) ;
#66 = DIRECTION ( 'NONE',  ( 4.275831445896958607E-31, 1.000000000000000000, 1.224646799147353454E-16 ) ) ;
#67 = DIRECTION ( 'NONE',  ( -3.491481338843133355E-15, 1.224646799147353207E-16, -1.000000000000000000 ) ) ;
#68 = AXIS2_PLACEMENT_3D ( 'NONE', #239, #67, #114 ) ;
#69 = DIRECTION ( 'NONE',  ( -3.491481338843133355E-15, 1.224646799147353207E-16, -1.000000000000000000 ) ) ;
#70 = PERSON_AND_ORGANIZATION ( #81, #51 ) ;
#71 = APPROVAL_DATE_TIME ( #268, #258 ) ;
#72 = APPROVAL_ROLE ( '' ) ;
#73 = CARTESIAN_POINT ( 'NONE',  ( 1.448964755619900342E-14, 0.4144999999999995355, 4.150000000000000355 ) ) ;
#74 = CIRCLE ( 'NONE', #169, 0.4145000000000000351 ) ;
#75 = DATE_AND_TIME ( #174, #183 ) ;
#76 =( GEOMETRIC_REPRESENTATION_CONTEXT ( 3 ) GLOBAL_UNCERTAINTY_ASSIGNED_CONTEXT ( ( #156 ) ) GLOBAL_UNIT_ASSIGNED_CONTEXT ( ( #119, #186, #142 ) ) REPRESENTATION_CONTEXT ( 'NONE', 'WORKASPACE' ) );
#77 = CLOSED_SHELL ( 'NONE', ( #202, #167, #111, #252 ) ) ;
#78 = EDGE_LOOP ( 'NONE', ( #236 ) ) ;
#79 = EDGE_CURVE ( 'NONE', #144, #144, #85, .T. ) ;
#80 = APPLICATION_CONTEXT ( 'configuration controlled 3d designs of mechanical parts and assemblies' ) ;
#81 = PERSON ( 'UNSPECIFIED', 'UNSPECIFIED', 'UNSPECIFIED', ('UNSPECIFIED'), ('UNSPECIFIED'), ('UNSPECIFIED') ) ;
#82 = CC_DESIGN_DATE_AND_TIME_ASSIGNMENT ( #75, #146, ( #59 ) ) ;
#83 = ORIENTED_EDGE ( 'NONE', *, *, #49, .F. ) ;
#84 = ORIENTED_EDGE ( 'NONE', *, *, #181, .T. ) ;
#85 = CIRCLE ( 'NONE', #265, 0.7499999999999970024 ) ;
#86 = ORIENTED_EDGE ( 'NONE', *, *, #132, .F. ) ;
#87 = CALENDAR_DATE ( 2021, 16, 12 ) ;
#88 = CARTESIAN_POINT ( 'NONE',  ( 1.042207179644675275E-13, -3.655570695454848748E-15, 29.84999999999999787 ) ) ;
#89 = DIRECTION ( 'NONE',  ( 0.0000000000000000000, 1.000000000000000000, 0.0000000000000000000 ) ) ;
#90 = CIRCLE ( 'NONE', #201, 0.4144999999999999796 ) ;
#91 = CARTESIAN_POINT ( 'NONE',  ( 1.047444401652940007E-13, -3.673940397442059178E-15, 30.00000000000000000 ) ) ;
#92 = DIRECTION ( 'NONE',  ( 3.491481338843133355E-15, -1.224646799147353207E-16, 1.000000000000000000 ) ) ;
#93 = CYLINDRICAL_SURFACE ( 'NONE', #125, 0.4144999999999998130 ) ;
#94 = CC_DESIGN_PERSON_AND_ORGANIZATION_ASSIGNMENT ( #139, #168, ( #19 ) ) ;
#95 = APPROVAL_STATUS ( 'not_yet_approved' ) ;
#96 = VERTEX_POINT ( 'NONE', #97 ) ;
#97 = CARTESIAN_POINT ( 'NONE',  ( 2.078346527163518257E-15, 0.4144999999999995355, 0.5952621038072501980 ) ) ;
#98 = COORDINATED_UNIVERSAL_TIME_OFFSET ( 1, 0, .AHEAD. ) ;
#99 = AXIS2_PLACEMENT_3D ( 'NONE', #272, #192, #41 ) ;
#100 = ORIENTED_EDGE ( 'NONE', *, *, #8, .T. ) ;
#101 = CC_DESIGN_DATE_AND_TIME_ASSIGNMENT ( #122, #207, ( #124 ) ) ;
#102 = DIRECTION ( 'NONE',  ( -3.491481338843133355E-15, 1.224646799147353207E-16, -1.000000000000000000 ) ) ;
#103 = MANIFOLD_SOLID_BREP ( 'Corps-Déplacer/Copier1[1]', #29 ) ;
#104 = ORIENTED_EDGE ( 'NONE', *, *, #79, .T. ) ;
#105 = PERSON_AND_ORGANIZATION ( #81, #51 ) ;
#106 = ORIENTED_EDGE ( 'NONE', *, *, #276, .F. ) ;
#107 = CC_DESIGN_APPROVAL ( #158, ( #124 ) ) ;
#108 = ORIENTED_EDGE ( 'NONE', *, *, #25, .F. ) ;
#109 = PERSON_AND_ORGANIZATION ( #81, #51 ) ;
#110 = DIRECTION ( 'NONE',  ( -3.491481338843133355E-15, 1.224646799147353207E-16, -1.000000000000000000 ) ) ;
#111 = ADVANCED_FACE ( 'NONE', ( #179, #112 ), #93, .T. ) ;
#112 = FACE_OUTER_BOUND ( 'NONE', #257, .T. ) ;
#113 = LOCAL_TIME ( 11, 16, 20.00000000000000000, #206 ) ;
#114 = DIRECTION ( 'NONE',  ( 4.275831445896958607E-31, 1.000000000000000000, 1.224646799147353207E-16 ) ) ;
#115 = DIRECTION ( 'NONE',  ( 3.491481338843133355E-15, -1.224646799147353207E-16, 1.000000000000000000 ) ) ;
#116 = CARTESIAN_POINT ( 'NONE',  ( -7.817604876497574346E-32, 2.742046672995730797E-33, -2.239051026716315543E-17 ) ) ;
#117 = AXIS2_PLACEMENT_3D ( 'NONE', #160, #194, #89 ) ;
#118 = APPROVAL_ROLE ( '' ) ;
#119 =( LENGTH_UNIT ( ) NAMED_UNIT ( * ) SI_UNIT ( .MILLI., .METRE. ) );
#120 = AXIS2_PLACEMENT_3D ( 'NONE', #178, #220, #66 ) ;
#121 = COORDINATED_UNIVERSAL_TIME_OFFSET ( 1, 0, .AHEAD. ) ;
#122 = DATE_AND_TIME ( #35, #17 ) ;
#123 = EDGE_LOOP ( 'NONE', ( #108 ) ) ;
#124 = PRODUCT_DEFINITION ( 'UNKNOWN', '', #27, #254 ) ;
#125 = AXIS2_PLACEMENT_3D ( 'NONE', #133, #177, #131 ) ;
#126 = CARTESIAN_POINT ( 'NONE',  ( 1.047444401652940007E-13, -3.673940397442059178E-15, 30.00000000000000000 ) ) ;
#127 = SECURITY_CLASSIFICATION_LEVEL ( 'unclassified' ) ;
#128 = EDGE_LOOP ( 'NONE', ( #275 ) ) ;
#129 = PERSON_AND_ORGANIZATION ( #81, #51 ) ;
#130 = FACE_OUTER_BOUND ( 'NONE', #256, .T. ) ;
#131 = DIRECTION ( 'NONE',  ( 4.275831445896958607E-31, 1.000000000000000000, 1.224646799147353207E-16 ) ) ;
#132 = EDGE_CURVE ( 'NONE', #221, #221, #90, .T. ) ;
#133 = CARTESIAN_POINT ( 'NONE',  ( 0.0000000000000000000, 0.0000000000000000000, 0.0000000000000000000 ) ) ;
#134 = CARTESIAN_POINT ( 'NONE',  ( 1.222018468595096674E-14, 3.108252149566693433E-33, 3.500000000000000000 ) ) ;
#135 = AXIS2_PLACEMENT_3D ( 'NONE', #240, #69, #217 ) ;
#136 = FACE_OUTER_BOUND ( 'NONE', #58, .T. ) ;
#137 = APPLICATION_CONTEXT ( 'configuration controlled 3d designs of mechanical parts and assemblies' ) ;
#138 = FACE_OUTER_BOUND ( 'NONE', #172, .T. ) ;
#139 = PERSON_AND_ORGANIZATION ( #81, #51 ) ;
#140 = APPROVAL_PERSON_ORGANIZATION ( #109, #162, #34 ) ;
#141 = VERTEX_POINT ( 'NONE', #246 ) ;
#142 =( NAMED_UNIT ( * ) SI_UNIT ( $, .STERADIAN. ) SOLID_ANGLE_UNIT ( ) );
#143 = CARTESIAN_POINT ( 'NONE',  ( 1.909117309467423042E-14, -6.696282108758906273E-16, 5.467929294733075984 ) ) ;
#144 = VERTEX_POINT ( 'NONE', #7 ) ;
#145 = AXIS2_PLACEMENT_3D ( 'NONE', #116, #5, #260 ) ;
#146 = DATE_TIME_ROLE ( 'classification_date' ) ;
#147 = CARTESIAN_POINT ( 'NONE',  ( 1.494147848925531634E-14, -5.240765174033099737E-16, 4.279409522551256728 ) ) ;
#148 = EDGE_LOOP ( 'NONE', ( #259 ) ) ;
#149 = DIRECTION ( 'NONE',  ( -3.491481338843133355E-15, 1.224646799147353207E-16, -1.000000000000000000 ) ) ;
#150 = PERSON_AND_ORGANIZATION ( #81, #51 ) ;
#151 = EDGE_LOOP ( 'NONE', ( #86 ) ) ;
#152 = DATE_AND_TIME ( #87, #113 ) ;
#153 = PLANE ( 'NONE',  #227 ) ;
#154 = LOCAL_TIME ( 11, 16, 20.00000000000000000, #121 ) ;
#155 = ADVANCED_FACE ( 'NONE', ( #157, #196 ), #21, .T. ) ;
#156 = UNCERTAINTY_MEASURE_WITH_UNIT (LENGTH_MEASURE( 1.000000000000000082E-05 ), #119, 'distance_accuracy_value', 'NONE');
#157 = FACE_OUTER_BOUND ( 'NONE', #42, .T. ) ;
#158 = APPROVAL ( #95, 'UNSPECIFIED' ) ;
#159 = FACE_BOUND ( 'NONE', #128, .T. ) ;
#160 = CARTESIAN_POINT ( 'NONE',  ( 2.078346527163518257E-15, -7.289858300812683768E-17, 0.5952621038072501980 ) ) ;
#161 = AXIS2_PLACEMENT_3D ( 'NONE', #44, #163, #244 ) ;
#162 = APPROVAL ( #241, 'UNSPECIFIED' ) ;
#163 = DIRECTION ( 'NONE',  ( -3.491481338843133355E-15, 1.224646799147353207E-16, -1.000000000000000000 ) ) ;
#164 = CARTESIAN_POINT ( 'NONE',  ( 1.222018468595096674E-14, 0.4144999999999995355, 3.500000000000000000 ) ) ;
#165 = ADVANCED_FACE ( 'NONE', ( #24 ), #199, .F. ) ;
#166 = CARTESIAN_POINT ( 'NONE',  ( 1.494147848925531634E-14, 0.4315370868554646022, 4.279409522551256728 ) ) ;
#167 = ADVANCED_FACE ( 'NONE', ( #159, #26 ), #188, .T. ) ;
#168 = PERSON_AND_ORGANIZATION_ROLE ( 'design_owner' ) ;
#169 = AXIS2_PLACEMENT_3D ( 'NONE', #60, #149, #225 ) ;
#170 = ORIENTED_EDGE ( 'NONE', *, *, #33, .T. ) ;
#171 = PERSON_AND_ORGANIZATION_ROLE ( 'creator' ) ;
#172 = EDGE_LOOP ( 'NONE', ( #84 ) ) ;
#173 = CIRCLE ( 'NONE', #117, 0.4144999999999995910 ) ;
#174 = CALENDAR_DATE ( 2021, 16, 12 ) ;
#175 = EDGE_LOOP ( 'NONE', ( #106 ) ) ;
#176 = ORIENTED_EDGE ( 'NONE', *, *, #23, .F. ) ;
#177 = DIRECTION ( 'NONE',  ( -3.491481338843133355E-15, 1.224646799147353207E-16, -1.000000000000000000 ) ) ;
#178 = CARTESIAN_POINT ( 'NONE',  ( 0.0000000000000000000, 0.0000000000000000000, 0.0000000000000000000 ) ) ;
#179 = FACE_OUTER_BOUND ( 'NONE', #175, .T. ) ;
#180 = FACE_OUTER_BOUND ( 'NONE', #151, .T. ) ;
#181 = EDGE_CURVE ( 'NONE', #224, #224, #277, .T. ) ;
#182 = CARTESIAN_POINT ( 'NONE',  ( 1.909117309467423042E-14, -6.696282108758906273E-16, 5.467929294733075984 ) ) ;
#183 = LOCAL_TIME ( 11, 16, 20.00000000000000000, #98 ) ;
#184 = MECHANICAL_CONTEXT ( 'NONE', #80, 'mechanical' ) ;
#185 = CALENDAR_DATE ( 2021, 16, 12 ) ;
#186 =( NAMED_UNIT ( * ) PLANE_ANGLE_UNIT ( ) SI_UNIT ( $, .RADIAN. ) );
#187 = DIRECTION ( 'NONE',  ( 0.0000000000000000000, 0.0000000000000000000, 1.000000000000000000 ) ) ;
#188 = CONICAL_SURFACE ( 'NONE', #10, 0.4144999999999995910, 0.2617993877991428020 ) ;
#189 = DIRECTION ( 'NONE',  ( -3.491481338843133355E-15, 1.224646799147353207E-16, -1.000000000000000000 ) ) ;
#190 = EDGE_LOOP ( 'NONE', ( #100 ) ) ;
#191 = AXIS2_PLACEMENT_3D ( 'NONE', #134, #92, #62 ) ;
#192 = DIRECTION ( 'NONE',  ( -3.491481338843133355E-15, 1.224646799147353207E-16, -1.000000000000000000 ) ) ;
#193 = EDGE_LOOP ( 'NONE', ( #170 ) ) ;
#194 = DIRECTION ( 'NONE',  ( -3.491481338843133355E-15, 1.224646799147353207E-16, -1.000000000000000000 ) ) ;
#195 = DIRECTION ( 'NONE',  ( 0.0000000000000000000, -1.000000000000000000, 0.0000000000000000000 ) ) ;
#196 = FACE_OUTER_BOUND ( 'NONE', #190, .T. ) ;
#197 = ADVANCED_FACE ( 'NONE', ( #136, #198 ), #32, .T. ) ;
#198 = FACE_BOUND ( 'NONE', #16, .T. ) ;
#199 = PLANE ( 'NONE',  #135 ) ;
#200 = AXIS2_PLACEMENT_3D ( 'NONE', #143, #15, #39 ) ;
#201 = AXIS2_PLACEMENT_3D ( 'NONE', #283, #110, #47 ) ;
#202 = ADVANCED_FACE ( 'NONE', ( #138 ), #242, .F. ) ;
#203 = APPLICATION_PROTOCOL_DEFINITION ( 'international standard', 'config_control_design', 1994, #137 ) ;
#204 = APPROVAL_DATE_TIME ( #11, #158 ) ;
#205 = CC_DESIGN_PERSON_AND_ORGANIZATION_ASSIGNMENT ( #129, #255, ( #27 ) ) ;
#206 = COORDINATED_UNIVERSAL_TIME_OFFSET ( 1, 0, .AHEAD. ) ;
#207 = DATE_TIME_ROLE ( 'creation_date' ) ;
#208 = ORIENTED_EDGE ( 'NONE', *, *, #33, .F. ) ;
#209 = CIRCLE ( 'NONE', #250, 0.7499999999999998890 ) ;
#210 = AXIS2_PLACEMENT_3D ( 'NONE', #278, #230, #37 ) ;
#211 = ORIENTED_EDGE ( 'NONE', *, *, #49, .T. ) ;
#212 = ORIENTED_EDGE ( 'NONE', *, *, #8, .F. ) ;
#213 = CYLINDRICAL_SURFACE ( 'NONE', #210, 0.4145000000000000351 ) ;
#214 = EDGE_LOOP ( 'NONE', ( #83 ) ) ;
#215 = PRODUCT_RELATED_PRODUCT_CATEGORY ( 'detail', '', ( #19 ) ) ;
#216 = DIRECTION ( 'NONE',  ( 3.491481338843133355E-15, -1.224646799147353207E-16, 1.000000000000000000 ) ) ;
#217 = DIRECTION ( 'NONE',  ( 4.275831445896958607E-31, 1.000000000000000000, 1.224646799147353207E-16 ) ) ;
#218 = FACE_OUTER_BOUND ( 'NONE', #233, .T. ) ;
#219 = DIRECTION ( 'NONE',  ( 0.0000000000000000000, 1.000000000000000000, 0.0000000000000000000 ) ) ;
#220 = DIRECTION ( 'NONE',  ( -3.491481338843133355E-15, 1.224646799147353207E-16, -1.000000000000000000 ) ) ;
#221 = VERTEX_POINT ( 'NONE', #164 ) ;
#222 = CIRCLE ( 'NONE', #99, 0.4144999999999999796 ) ;
#223 = CC_DESIGN_APPROVAL ( #162, ( #59 ) ) ;
#224 = VERTEX_POINT ( 'NONE', #30 ) ;
#225 = DIRECTION ( 'NONE',  ( 0.0000000000000000000, 1.000000000000000000, 0.0000000000000000000 ) ) ;
#226 = CARTESIAN_POINT ( 'NONE',  ( 1.047444401652940007E-13, 0.5999999999999963141, 30.00000000000000000 ) ) ;
#227 = AXIS2_PLACEMENT_3D ( 'NONE', #264, #216, #18 ) ;
#228 = COORDINATED_UNIVERSAL_TIME_OFFSET ( 1, 0, .AHEAD. ) ;
#229 = ADVANCED_FACE ( 'NONE', ( #263 ), #46, .F. ) ;
#230 = DIRECTION ( 'NONE',  ( -3.491481338843133355E-15, 1.224646799147353207E-16, -1.000000000000000000 ) ) ;
#231 = CIRCLE ( 'NONE', #251, 0.6000000000000000888 ) ;
#232 = ADVANCED_BREP_SHAPE_REPRESENTATION ( '62337', ( #103, #9, #261 ), #76 ) ;
#233 = EDGE_LOOP ( 'NONE', ( #176 ) ) ;
#234 = ADVANCED_FACE ( 'NONE', ( #218, #22 ), #281, .F. ) ;
#235 = DIRECTION ( 'NONE',  ( 0.0000000000000000000, 1.000000000000000000, 0.0000000000000000000 ) ) ;
#236 = ORIENTED_EDGE ( 'NONE', *, *, #25, .T. ) ;
#237 = CIRCLE ( 'NONE', #271, 0.4315370868554651573 ) ;
#238 = APPROVAL_PERSON_ORGANIZATION ( #269, #158, #72 ) ;
#239 = CARTESIAN_POINT ( 'NONE',  ( 1.448964755619900342E-14, -5.421010862427522170E-16, 4.150000000000000355 ) ) ;
#240 = CARTESIAN_POINT ( 'NONE',  ( 1.047444401652940007E-13, 4.499279347985518085E-33, 30.00000000000000000 ) ) ;
#241 = APPROVAL_STATUS ( 'not_yet_approved' ) ;
#242 = PLANE ( 'NONE',  #145 ) ;
#243 = VERTEX_POINT ( 'NONE', #73 ) ;
#244 = DIRECTION ( 'NONE',  ( 4.275831445896959482E-31, 1.000000000000000000, 1.224646799147353207E-16 ) ) ;
#245 = CC_DESIGN_PERSON_AND_ORGANIZATION_ASSIGNMENT ( #105, #274, ( #59 ) ) ;
#246 = CARTESIAN_POINT ( 'NONE',  ( 1.222018468595096674E-14, 0.4144999999999995355, 3.500000000000000000 ) ) ;
#247 = CC_DESIGN_APPROVAL ( #258, ( #27 ) ) ;
#248 = FACE_BOUND ( 'NONE', #123, .T. ) ;
#249 = CALENDAR_DATE ( 2021, 16, 12 ) ;
#250 = AXIS2_PLACEMENT_3D ( 'NONE', #88, #102, #253 ) ;
#251 = AXIS2_PLACEMENT_3D ( 'NONE', #126, #189, #280 ) ;
#252 = ADVANCED_FACE ( 'NONE', ( #180 ), #153, .T. ) ;
#253 = DIRECTION ( 'NONE',  ( 0.0000000000000000000, 1.000000000000000000, 0.0000000000000000000 ) ) ;
#254 = DESIGN_CONTEXT ( 'detailed design', #137, 'design' ) ;
#255 = PERSON_AND_ORGANIZATION_ROLE ( 'design_supplier' ) ;
#256 = EDGE_LOOP ( 'NONE', ( #208 ) ) ;
#257 = EDGE_LOOP ( 'NONE', ( #13 ) ) ;
#258 = APPROVAL ( #28, 'UNSPECIFIED' ) ;
#259 = ORIENTED_EDGE ( 'NONE', *, *, #276, .T. ) ;
#260 = DIRECTION ( 'NONE',  ( -4.275831445896958607E-31, -1.000000000000000000, -1.224646799147353207E-16 ) ) ;
#261 = AXIS2_PLACEMENT_3D ( 'NONE', #267, #187, #50 ) ;
#262 = VERTEX_POINT ( 'NONE', #64 ) ;
#263 = FACE_OUTER_BOUND ( 'NONE', #193, .T. ) ;
#264 = CARTESIAN_POINT ( 'NONE',  ( 1.222018468595096674E-14, 3.108252149566693433E-33, 3.500000000000000000 ) ) ;
#265 = AXIS2_PLACEMENT_3D ( 'NONE', #182, #3, #219 ) ;
#266 = CARTESIAN_POINT ( 'NONE',  ( 2.078346527163518257E-15, -7.289858300812683768E-17, 0.5952621038072501980 ) ) ;
#267 = CARTESIAN_POINT ( 'NONE',  ( 0.0000000000000000000, 0.0000000000000000000, 0.0000000000000000000 ) ) ;
#268 = DATE_AND_TIME ( #185, #38 ) ;
#269 = PERSON_AND_ORGANIZATION ( #81, #51 ) ;
#270 = PERSON_AND_ORGANIZATION_ROLE ( 'creator' ) ;
#271 = AXIS2_PLACEMENT_3D ( 'NONE', #147, #36, #235 ) ;
#272 = CARTESIAN_POINT ( 'NONE',  ( 1.222018468595096674E-14, -4.286263797015736595E-16, 3.500000000000000000 ) ) ;
#273 = ORIENTED_EDGE ( 'NONE', *, *, #23, .T. ) ;
#274 = PERSON_AND_ORGANIZATION_ROLE ( 'classification_officer' ) ;
#275 = ORIENTED_EDGE ( 'NONE', *, *, #181, .F. ) ;
#276 = EDGE_CURVE ( 'NONE', #96, #96, #173, .T. ) ;
#277 = CIRCLE ( 'NONE', #161, 0.2550000000000000044 ) ;
#278 = CARTESIAN_POINT ( 'NONE',  ( 0.0000000000000000000, 0.0000000000000000000, 0.0000000000000000000 ) ) ;
#279 = EDGE_LOOP ( 'NONE', ( #273 ) ) ;
#280 = DIRECTION ( 'NONE',  ( 0.0000000000000000000, 1.000000000000000000, 0.0000000000000000000 ) ) ;
#281 = TOROIDAL_SURFACE ( 'NONE', #68, 0.9145000000000000906, 0.4999999999999998890 ) ;
#282 = CC_DESIGN_PERSON_AND_ORGANIZATION_ASSIGNMENT ( #150, #171, ( #27 ) ) ;
#283 = CARTESIAN_POINT ( 'NONE',  ( 1.222018468595096674E-14, -4.286263797015736595E-16, 3.500000000000000000 ) ) ;
ENDSEC;
END-ISO-10303-21;
