ISO-10303-21;
HEADER;
FILE_DESCRIPTION (( 'STEP AP203' ),
    '1' );
FILE_NAME ('62335.step',
    '2021-12-16T11:55:57',
    ( '' ),
    ( '' ),
    'SwSTEP 2.0',
    'SolidWorks 2019',
    '' );
FILE_SCHEMA (( 'CONFIG_CONTROL_DESIGN' ));
ENDSEC;

DATA;
#1 = PERSON ( 'UNSPECIFIED', 'UNSPECIFIED', 'UNSPECIFIED', ('UNSPECIFIED'), ('UNSPECIFIED'), ('UNSPECIFIED') ) ;
#2 = PLANE ( 'NONE',  #27 ) ;
#3 = FACE_OUTER_BOUND ( 'NONE', #96, .T. ) ;
#4 = CARTESIAN_POINT ( 'NONE',  ( 0.0000000000000000000, 0.0000000000000000000, 0.0000000000000000000 ) ) ;
#5 = LOCAL_TIME ( 12, 55, 57.00000000000000000, #107 ) ;
#6 = FACE_OUTER_BOUND ( 'NONE', #263, .T. ) ;
#7 = CC_DESIGN_PERSON_AND_ORGANIZATION_ASSIGNMENT ( #58, #273, ( #272 ) ) ;
#8 = CARTESIAN_POINT ( 'NONE',  ( 2.151449382310836121E-14, 0.7499999999999963363, 6.161995936726664347 ) ) ;
#9 = CYLINDRICAL_SURFACE ( 'NONE', #87, 0.3624999999999997113 ) ;
#10 = AXIS2_PLACEMENT_3D ( 'NONE', #71, #281, #70 ) ;
#11 = PERSON_AND_ORGANIZATION ( #1, #180 ) ;
#12 = FACE_OUTER_BOUND ( 'NONE', #195, .T. ) ;
#13 = PERSON_AND_ORGANIZATION ( #1, #180 ) ;
#14 = APPROVAL_ROLE ( '' ) ;
#15 =( LENGTH_UNIT ( ) NAMED_UNIT ( * ) SI_UNIT ( .MILLI., .METRE. ) );
#16 = PERSON_AND_ORGANIZATION_ROLE ( 'creator' ) ;
#17 = ADVANCED_FACE ( 'NONE', ( #271, #12 ), #9, .T. ) ;
#18 = CLOSED_SHELL ( 'NONE', ( #112, #73, #121, #149, #198, #90, #115 ) ) ;
#19 = CC_DESIGN_PERSON_AND_ORGANIZATION_ASSIGNMENT ( #13, #161, ( #240 ) ) ;
#20 = AXIS2_PLACEMENT_3D ( 'NONE', #41, #163, #102 ) ;
#21 = DESIGN_CONTEXT ( 'detailed design', #45, 'design' ) ;
#22 = FACE_OUTER_BOUND ( 'NONE', #59, .T. ) ;
#23 = EDGE_CURVE ( 'NONE', #118, #118, #276, .T. ) ;
#24 = TOROIDAL_SURFACE ( 'NONE', #153, 0.8624999999999999334, 0.5000000000000000000 ) ;
#25 = DIRECTION ( 'NONE',  ( 0.0000000000000000000, 1.000000000000000000, 0.0000000000000000000 ) ) ;
#26 = CARTESIAN_POINT ( 'NONE',  ( 0.0000000000000000000, 0.0000000000000000000, 0.0000000000000000000 ) ) ;
#27 = AXIS2_PLACEMENT_3D ( 'NONE', #259, #76, #155 ) ;
#28 = ORIENTED_EDGE ( 'NONE', *, *, #194, .T. ) ;
#29 = DIRECTION ( 'NONE',  ( -4.275831445896958607E-31, -1.000000000000000000, -1.224646799147353207E-16 ) ) ;
#30 = DIRECTION ( 'NONE',  ( 4.275831445896958607E-31, 1.000000000000000000, 1.224646799147353207E-16 ) ) ;
#31 = ORIENTED_EDGE ( 'NONE', *, *, #169, .T. ) ;
#32 = CC_DESIGN_APPROVAL ( #267, ( #240 ) ) ;
#33 = VERTEX_POINT ( 'NONE', #119 ) ;
#34 = DIRECTION ( 'NONE',  ( 0.0000000000000000000, 1.000000000000000000, 0.0000000000000000000 ) ) ;
#35 = DATE_AND_TIME ( #226, #151 ) ;
#36 = EDGE_LOOP ( 'NONE', ( #105 ) ) ;
#37 = EDGE_LOOP ( 'NONE', ( #81 ) ) ;
#38 = CIRCLE ( 'NONE', #278, 0.3624999999999999334 ) ;
#39 = APPLICATION_PROTOCOL_DEFINITION ( 'international standard', 'config_control_design', 1994, #45 ) ;
#40 = PERSON_AND_ORGANIZATION ( #1, #180 ) ;
#41 = CARTESIAN_POINT ( 'NONE',  ( 0.0000000000000000000, 0.0000000000000000000, 0.0000000000000000000 ) ) ;
#42 = APPROVAL_DATE_TIME ( #253, #147 ) ;
#43 = CARTESIAN_POINT ( 'NONE',  ( 1.623538822562057326E-14, 0.3624999999999994338, 4.650000000000000355 ) ) ;
#44 = ADVANCED_FACE ( 'NONE', ( #268, #83 ), #191, .T. ) ;
#45 = APPLICATION_CONTEXT ( 'configuration controlled 3d designs of mechanical parts and assemblies' ) ;
#46 = ADVANCED_FACE ( 'NONE', ( #252 ), #2, .F. ) ;
#47 = CARTESIAN_POINT ( 'NONE',  ( 1.856829969409411243E-15, -6.512882807936091995E-17, 0.5318172400785773357 ) ) ;
#48 = CC_DESIGN_SECURITY_CLASSIFICATION ( #64, ( #239 ) ) ;
#49 = CARTESIAN_POINT ( 'NONE',  ( 2.151449382310836121E-14, -7.546268600271305740E-16, 6.161995936726664347 ) ) ;
#50 = AXIS2_PLACEMENT_3D ( 'NONE', #179, #261, #134 ) ;
#51 = CC_DESIGN_PERSON_AND_ORGANIZATION_ASSIGNMENT ( #211, #251, ( #239 ) ) ;
#52 = CARTESIAN_POINT ( 'NONE',  ( 1.047444401652940007E-13, -3.673940397442059178E-15, 30.00000000000000000 ) ) ;
#53 = ORIENTED_EDGE ( 'NONE', *, *, #215, .T. ) ;
#54 = DIRECTION ( 'NONE',  ( 0.0000000000000000000, 1.000000000000000000, 0.0000000000000000000 ) ) ;
#55 = CYLINDRICAL_SURFACE ( 'NONE', #206, 0.7499999999999984457 ) ;
#56 = AXIS2_PLACEMENT_3D ( 'NONE', #26, #132, #117 ) ;
#57 = CARTESIAN_POINT ( 'NONE',  ( 1.396592535537253342E-14, 0.3624999999999994338, 4.000000000000000000 ) ) ;
#58 = PERSON_AND_ORGANIZATION ( #1, #180 ) ;
#59 = EDGE_LOOP ( 'NONE', ( #31 ) ) ;
#60 = APPROVAL_ROLE ( '' ) ;
#61 = DATE_AND_TIME ( #164, #95 ) ;
#62 = EDGE_LOOP ( 'NONE', ( #154 ) ) ;
#63 = VERTEX_POINT ( 'NONE', #125 ) ;
#64 = SECURITY_CLASSIFICATION ( '', '', #103 ) ;
#65 = ORIENTED_EDGE ( 'NONE', *, *, #169, .F. ) ;
#66 = EDGE_CURVE ( 'NONE', #80, #80, #68, .T. ) ;
#67 = AXIS2_PLACEMENT_3D ( 'NONE', #133, #221, #30 ) ;
#68 = CIRCLE ( 'NONE', #217, 0.3795370868554649446 ) ;
#69 = UNCERTAINTY_MEASURE_WITH_UNIT (LENGTH_MEASURE( 1.000000000000000082E-05 ), #15, 'distance_accuracy_value', 'NONE');
#70 = DIRECTION ( 'NONE',  ( 0.0000000000000000000, -1.000000000000000000, 0.0000000000000000000 ) ) ;
#71 = CARTESIAN_POINT ( 'NONE',  ( 2.151449382310836121E-14, -7.546268600271305740E-16, 6.161995936726664347 ) ) ;
#72 = APPROVAL_PERSON_ORGANIZATION ( #11, #267, #60 ) ;
#73 = ADVANCED_FACE ( 'NONE', ( #3, #77 ), #156, .T. ) ;
#74 = CIRCLE ( 'NONE', #255, 0.7499999999999971134 ) ;
#75 = EDGE_LOOP ( 'NONE', ( #101 ) ) ;
#76 = DIRECTION ( 'NONE',  ( 3.491481338843133355E-15, -1.224646799147353207E-16, 1.000000000000000000 ) ) ;
#77 = FACE_OUTER_BOUND ( 'NONE', #136, .T. ) ;
#78 = DIRECTION ( 'NONE',  ( 0.0000000000000000000, 1.000000000000000000, 0.0000000000000000000 ) ) ;
#79 = ORIENTED_EDGE ( 'NONE', *, *, #171, .T. ) ;
#80 = VERTEX_POINT ( 'NONE', #181 ) ;
#81 = ORIENTED_EDGE ( 'NONE', *, *, #135, .T. ) ;
#82 = APPROVAL_DATE_TIME ( #209, #267 ) ;
#83 = FACE_OUTER_BOUND ( 'NONE', #36, .T. ) ;
#84 = PERSON_AND_ORGANIZATION ( #1, #180 ) ;
#85 = DIRECTION ( 'NONE',  ( 3.491481338843133355E-15, -1.224646799147353207E-16, 1.000000000000000000 ) ) ;
#86 = CALENDAR_DATE ( 2021, 16, 12 ) ;
#87 = AXIS2_PLACEMENT_3D ( 'NONE', #99, #137, #227 ) ;
#88 = DIRECTION ( 'NONE',  ( 4.275831445896958607E-31, 1.000000000000000000, 1.224646799147353207E-16 ) ) ;
#89 = DIRECTION ( 'NONE',  ( -4.275831445896958607E-31, -1.000000000000000000, -1.224646799147353207E-16 ) ) ;
#90 = ADVANCED_FACE ( 'NONE', ( #177, #244 ), #238, .T. ) ;
#91 = AXIS2_PLACEMENT_3D ( 'NONE', #225, #184, #34 ) ;
#92 = PLANE ( 'NONE',  #139 ) ;
#93 = DIRECTION ( 'NONE',  ( -3.491481338843133355E-15, 1.224646799147353207E-16, -1.000000000000000000 ) ) ;
#94 = CARTESIAN_POINT ( 'NONE',  ( 1.623538822562057326E-14, -5.694607616035192869E-16, 4.650000000000000355 ) ) ;
#95 = LOCAL_TIME ( 12, 55, 57.00000000000000000, #106 ) ;
#96 = EDGE_LOOP ( 'NONE', ( #158 ) ) ;
#97 = EDGE_LOOP ( 'NONE', ( #186 ) ) ;
#98 = DIRECTION ( 'NONE',  ( -3.491481338843133355E-15, 1.224646799147353207E-16, -1.000000000000000000 ) ) ;
#99 = CARTESIAN_POINT ( 'NONE',  ( 0.0000000000000000000, 0.0000000000000000000, 0.0000000000000000000 ) ) ;
#100 = APPROVAL ( #185, 'UNSPECIFIED' ) ;
#101 = ORIENTED_EDGE ( 'NONE', *, *, #175, .F. ) ;
#102 = DIRECTION ( 'NONE',  ( 1.000000000000000000, 0.0000000000000000000, 0.0000000000000000000 ) ) ;
#103 = SECURITY_CLASSIFICATION_LEVEL ( 'unclassified' ) ;
#104 =( NAMED_UNIT ( * ) PLANE_ANGLE_UNIT ( ) SI_UNIT ( $, .RADIAN. ) );
#105 = ORIENTED_EDGE ( 'NONE', *, *, #159, .T. ) ;
#106 = COORDINATED_UNIVERSAL_TIME_OFFSET ( 1, 0, .AHEAD. ) ;
#107 = COORDINATED_UNIVERSAL_TIME_OFFSET ( 1, 0, .AHEAD. ) ;
#108 = APPROVAL_PERSON_ORGANIZATION ( #190, #147, #14 ) ;
#109 = PRODUCT_RELATED_PRODUCT_CATEGORY ( 'detail', '', ( #272 ) ) ;
#110 = AXIS2_PLACEMENT_3D ( 'NONE', #257, #256, #89 ) ;
#111 = DIRECTION ( 'NONE',  ( 0.0000000000000000000, 1.000000000000000000, 0.0000000000000000000 ) ) ;
#112 = ADVANCED_FACE ( 'NONE', ( #216 ), #114, .F. ) ;
#113 = DIRECTION ( 'NONE',  ( -3.491481338843133355E-15, 1.224646799147353207E-16, -1.000000000000000000 ) ) ;
#114 = PLANE ( 'NONE',  #127 ) ;
#115 = ADVANCED_FACE ( 'NONE', ( #178 ), #92, .F. ) ;
#116 = EDGE_LOOP ( 'NONE', ( #243 ) ) ;
#117 = DIRECTION ( 'NONE',  ( 4.275831445896957731E-31, 1.000000000000000000, 1.224646799147352961E-16 ) ) ;
#118 = VERTEX_POINT ( 'NONE', #246 ) ;
#119 = CARTESIAN_POINT ( 'NONE',  ( 1.856829969409411243E-15, 0.3624999999999994338, 0.5318172400785773357 ) ) ;
#120 = CARTESIAN_POINT ( 'NONE',  ( 1.856829969409411243E-15, -6.512882807936091995E-17, 0.5318172400785773357 ) ) ;
#121 = ADVANCED_FACE ( 'NONE', ( #150, #152 ), #24, .F. ) ;
#122 = DATE_TIME_ROLE ( 'creation_date' ) ;
#123 = AXIS2_PLACEMENT_3D ( 'NONE', #47, #241, #25 ) ;
#124 = EDGE_LOOP ( 'NONE', ( #65 ) ) ;
#125 = CARTESIAN_POINT ( 'NONE',  ( 1.396592535537253342E-14, 0.3624999999999994338, 4.000000000000000000 ) ) ;
#126 = SHAPE_DEFINITION_REPRESENTATION ( #236, #234 ) ;
#127 = AXIS2_PLACEMENT_3D ( 'NONE', #220, #201, #29 ) ;
#128 = LOCAL_TIME ( 12, 55, 57.00000000000000000, #274 ) ;
#129 = CARTESIAN_POINT ( 'NONE',  ( 1.396592535537253342E-14, -4.898587196589412829E-16, 4.000000000000000000 ) ) ;
#130 = DIRECTION ( 'NONE',  ( -3.491481338843133355E-15, 1.224646799147353207E-16, -1.000000000000000000 ) ) ;
#131 = DIRECTION ( 'NONE',  ( -3.491481338843133355E-15, 1.224646799147353207E-16, -1.000000000000000000 ) ) ;
#132 = DIRECTION ( 'NONE',  ( -3.491481338843133355E-15, 1.224646799147353207E-16, -1.000000000000000000 ) ) ;
#133 = CARTESIAN_POINT ( 'NONE',  ( -7.040909397994355673E-32, 2.469618571754223774E-33, -2.016596600320736057E-17 ) ) ;
#134 = DIRECTION ( 'NONE',  ( 0.0000000000000000000, 1.000000000000000000, 0.0000000000000000000 ) ) ;
#135 = EDGE_CURVE ( 'NONE', #160, #160, #229, .T. ) ;
#136 = EDGE_LOOP ( 'NONE', ( #28 ) ) ;
#137 = DIRECTION ( 'NONE',  ( -3.491481338843133355E-15, 1.224646799147353207E-16, -1.000000000000000000 ) ) ;
#138 = COORDINATED_UNIVERSAL_TIME_OFFSET ( 1, 0, .AHEAD. ) ;
#139 = AXIS2_PLACEMENT_3D ( 'NONE', #202, #199, #88 ) ;
#140 = APPROVAL_STATUS ( 'not_yet_approved' ) ;
#141 = DATE_AND_TIME ( #192, #5 ) ;
#142 = AXIS2_PLACEMENT_3D ( 'NONE', #129, #176, #111 ) ;
#143 = EDGE_LOOP ( 'NONE', ( #205 ) ) ;
#144 = VERTEX_POINT ( 'NONE', #233 ) ;
#145 = ADVANCED_FACE ( 'NONE', ( #197 ), #173, .T. ) ;
#146 = EDGE_LOOP ( 'NONE', ( #219 ) ) ;
#147 = APPROVAL ( #140, 'UNSPECIFIED' ) ;
#148 = AXIS2_PLACEMENT_3D ( 'NONE', #94, #264, #78 ) ;
#149 = ADVANCED_FACE ( 'NONE', ( #213, #22 ), #258, .T. ) ;
#150 = FACE_OUTER_BOUND ( 'NONE', #97, .T. ) ;
#151 = LOCAL_TIME ( 12, 55, 57.00000000000000000, #247 ) ;
#152 = FACE_OUTER_BOUND ( 'NONE', #116, .T. ) ;
#153 = AXIS2_PLACEMENT_3D ( 'NONE', #282, #113, #237 ) ;
#154 = ORIENTED_EDGE ( 'NONE', *, *, #171, .F. ) ;
#155 = DIRECTION ( 'NONE',  ( -4.275831445896958607E-31, -1.000000000000000000, -1.224646799147353207E-16 ) ) ;
#156 = CYLINDRICAL_SURFACE ( 'NONE', #56, 0.3624999999999999889 ) ;
#157 = DIRECTION ( 'NONE',  ( -3.491481338843133355E-15, 1.224646799147353207E-16, -1.000000000000000000 ) ) ;
#158 = ORIENTED_EDGE ( 'NONE', *, *, #135, .F. ) ;
#159 = EDGE_CURVE ( 'NONE', #33, #33, #172, .T. ) ;
#160 = VERTEX_POINT ( 'NONE', #57 ) ;
#161 = PERSON_AND_ORGANIZATION_ROLE ( 'creator' ) ;
#162 = ORIENTED_EDGE ( 'NONE', *, *, #215, .F. ) ;
#163 = DIRECTION ( 'NONE',  ( 0.0000000000000000000, 0.0000000000000000000, 1.000000000000000000 ) ) ;
#164 = CALENDAR_DATE ( 2021, 16, 12 ) ;
#165 = DIRECTION ( 'NONE',  ( 0.0000000000000000000, -1.000000000000000000, 0.0000000000000000000 ) ) ;
#166 = DATE_TIME_ROLE ( 'classification_date' ) ;
#167 = AXIS2_PLACEMENT_3D ( 'NONE', #120, #85, #165 ) ;
#168 = CARTESIAN_POINT ( 'NONE',  ( 2.365919782978951696E-32, 0.2199999999999999456, 6.776263578034402713E-18 ) ) ;
#169 = EDGE_CURVE ( 'NONE', #204, #204, #74, .T. ) ;
#170 = CC_DESIGN_APPROVAL ( #147, ( #64 ) ) ;
#171 = EDGE_CURVE ( 'NONE', #63, #63, #38, .T. ) ;
#172 = CIRCLE ( 'NONE', #123, 0.3624999999999994893 ) ;
#173 = PLANE ( 'NONE',  #110 ) ;
#174 = MANIFOLD_SOLID_BREP ( 'Corps-Déplacer/Copier1[1]', #18 ) ;
#175 = EDGE_CURVE ( 'NONE', #144, #144, #265, .T. ) ;
#176 = DIRECTION ( 'NONE',  ( -3.491481338843133355E-15, 1.224646799147353207E-16, -1.000000000000000000 ) ) ;
#177 = FACE_OUTER_BOUND ( 'NONE', #75, .T. ) ;
#178 = FACE_OUTER_BOUND ( 'NONE', #232, .T. ) ;
#179 = CARTESIAN_POINT ( 'NONE',  ( 1.042207179644675275E-13, -3.655570695454848748E-15, 29.84999999999999787 ) ) ;
#180 = ORGANIZATION ( 'UNSPECIFIED', 'UNSPECIFIED', '' ) ;
#181 = CARTESIAN_POINT ( 'NONE',  ( 1.668721915867688301E-14, 0.3795370868554643340, 4.779409522551257616 ) ) ;
#182 = EDGE_LOOP ( 'NONE', ( #53 ) ) ;
#183 = CIRCLE ( 'NONE', #67, 0.2199999999999999456 ) ;
#184 = DIRECTION ( 'NONE',  ( -3.491481338843133355E-15, 1.224646799147353207E-16, -1.000000000000000000 ) ) ;
#185 = APPROVAL_STATUS ( 'not_yet_approved' ) ;
#186 = ORIENTED_EDGE ( 'NONE', *, *, #194, .F. ) ;
#187 = APPROVAL_STATUS ( 'not_yet_approved' ) ;
#188 = APPROVAL_DATE_TIME ( #141, #100 ) ;
#189 = VERTEX_POINT ( 'NONE', #168 ) ;
#190 = PERSON_AND_ORGANIZATION ( #1, #180 ) ;
#191 = CONICAL_SURFACE ( 'NONE', #167, 0.3624999999999994893, 0.2617993877991428575 ) ;
#192 = CALENDAR_DATE ( 2021, 16, 12 ) ;
#193 = ORIENTED_EDGE ( 'NONE', *, *, #159, .F. ) ;
#194 = EDGE_CURVE ( 'NONE', #275, #275, #196, .T. ) ;
#195 = EDGE_LOOP ( 'NONE', ( #79 ) ) ;
#196 = CIRCLE ( 'NONE', #148, 0.3625000000000000444 ) ;
#197 = FACE_OUTER_BOUND ( 'NONE', #62, .T. ) ;
#198 = ADVANCED_FACE ( 'NONE', ( #245, #6 ), #55, .T. ) ;
#199 = DIRECTION ( 'NONE',  ( -3.491481338843133355E-15, 1.224646799147353207E-16, -1.000000000000000000 ) ) ;
#200 = ORIENTED_EDGE ( 'NONE', *, *, #23, .F. ) ;
#201 = DIRECTION ( 'NONE',  ( 3.491481338843133355E-15, -1.224646799147353207E-16, 1.000000000000000000 ) ) ;
#202 = CARTESIAN_POINT ( 'NONE',  ( 1.047444401652940007E-13, 4.499279347985518085E-33, 30.00000000000000000 ) ) ;
#203 = DIRECTION ( 'NONE',  ( 0.0000000000000000000, 1.000000000000000000, 0.0000000000000000000 ) ) ;
#204 = VERTEX_POINT ( 'NONE', #8 ) ;
#205 = ORIENTED_EDGE ( 'NONE', *, *, #23, .T. ) ;
#206 = AXIS2_PLACEMENT_3D ( 'NONE', #4, #98, #223 ) ;
#207 = PERSON_AND_ORGANIZATION ( #1, #180 ) ;
#208 = ORIENTED_EDGE ( 'NONE', *, *, #175, .T. ) ;
#209 = DATE_AND_TIME ( #230, #224 ) ;
#210 = APPLICATION_CONTEXT ( 'configuration controlled 3d designs of mechanical parts and assemblies' ) ;
#211 = PERSON_AND_ORGANIZATION ( #1, #180 ) ;
#212 =( GEOMETRIC_REPRESENTATION_CONTEXT ( 3 ) GLOBAL_UNCERTAINTY_ASSIGNED_CONTEXT ( ( #69 ) ) GLOBAL_UNIT_ASSIGNED_CONTEXT ( ( #15, #104, #270 ) ) REPRESENTATION_CONTEXT ( 'NONE', 'WORKASPACE' ) );
#213 = FACE_BOUND ( 'NONE', #146, .T. ) ;
#214 = DIRECTION ( 'NONE',  ( 0.0000000000000000000, 1.000000000000000000, 0.0000000000000000000 ) ) ;
#215 = EDGE_CURVE ( 'NONE', #189, #189, #183, .T. ) ;
#216 = FACE_OUTER_BOUND ( 'NONE', #37, .T. ) ;
#217 = AXIS2_PLACEMENT_3D ( 'NONE', #260, #93, #242 ) ;
#218 = EDGE_LOOP ( 'NONE', ( #162 ) ) ;
#219 = ORIENTED_EDGE ( 'NONE', *, *, #66, .F. ) ;
#220 = CARTESIAN_POINT ( 'NONE',  ( 1.396592535537253342E-14, 2.718314606074609388E-33, 4.000000000000000000 ) ) ;
#221 = DIRECTION ( 'NONE',  ( -3.491481338843133355E-15, 1.224646799147353207E-16, -1.000000000000000000 ) ) ;
#222 = CC_DESIGN_DATE_AND_TIME_ASSIGNMENT ( #61, #166, ( #64 ) ) ;
#223 = DIRECTION ( 'NONE',  ( 4.275831445896958607E-31, 1.000000000000000000, 1.224646799147353454E-16 ) ) ;
#224 = LOCAL_TIME ( 12, 55, 57.00000000000000000, #138 ) ;
#225 = CARTESIAN_POINT ( 'NONE',  ( 1.047444401652940007E-13, -3.673940397442059178E-15, 30.00000000000000000 ) ) ;
#226 = CALENDAR_DATE ( 2021, 16, 12 ) ;
#227 = DIRECTION ( 'NONE',  ( 4.275831445896958607E-31, 1.000000000000000000, 1.224646799147353454E-16 ) ) ;
#228 = CC_DESIGN_PERSON_AND_ORGANIZATION_ASSIGNMENT ( #40, #16, ( #239 ) ) ;
#229 = CIRCLE ( 'NONE', #142, 0.3624999999999999334 ) ;
#230 = CALENDAR_DATE ( 2021, 16, 12 ) ;
#231 = PERSON_AND_ORGANIZATION_ROLE ( 'classification_officer' ) ;
#232 = EDGE_LOOP ( 'NONE', ( #200 ) ) ;
#233 = CARTESIAN_POINT ( 'NONE',  ( 1.042207179644675275E-13, 0.7499999999999962252, 29.84999999999999787 ) ) ;
#234 = ADVANCED_BREP_SHAPE_REPRESENTATION ( '62335', ( #174, #262, #20 ), #212 ) ;
#235 = CLOSED_SHELL ( 'NONE', ( #46, #44, #17, #145 ) ) ;
#236 = PRODUCT_DEFINITION_SHAPE ( 'NONE', 'NONE',  #240 ) ;
#237 = DIRECTION ( 'NONE',  ( 4.275831445896958607E-31, 1.000000000000000000, 1.224646799147353207E-16 ) ) ;
#238 = CONICAL_SURFACE ( 'NONE', #280, 0.6000000000000000888, 0.7853981633974450594 ) ;
#239 = PRODUCT_DEFINITION_FORMATION_WITH_SPECIFIED_SOURCE ( 'ANY', '', #272, .NOT_KNOWN. ) ;
#240 = PRODUCT_DEFINITION ( 'UNKNOWN', '', #239, #21 ) ;
#241 = DIRECTION ( 'NONE',  ( -3.491481338843133355E-15, 1.224646799147353207E-16, -1.000000000000000000 ) ) ;
#242 = DIRECTION ( 'NONE',  ( 0.0000000000000000000, 1.000000000000000000, 0.0000000000000000000 ) ) ;
#243 = ORIENTED_EDGE ( 'NONE', *, *, #66, .T. ) ;
#244 = FACE_BOUND ( 'NONE', #143, .T. ) ;
#245 = FACE_OUTER_BOUND ( 'NONE', #124, .T. ) ;
#246 = CARTESIAN_POINT ( 'NONE',  ( 1.047444401652940007E-13, 0.5999999999999963141, 30.00000000000000000 ) ) ;
#247 = COORDINATED_UNIVERSAL_TIME_OFFSET ( 1, 0, .AHEAD. ) ;
#248 = CC_DESIGN_DATE_AND_TIME_ASSIGNMENT ( #35, #122, ( #240 ) ) ;
#249 = EDGE_LOOP ( 'NONE', ( #193 ) ) ;
#250 = APPLICATION_PROTOCOL_DEFINITION ( 'international standard', 'config_control_design', 1994, #210 ) ;
#251 = PERSON_AND_ORGANIZATION_ROLE ( 'design_supplier' ) ;
#252 = FACE_OUTER_BOUND ( 'NONE', #182, .T. ) ;
#253 = DATE_AND_TIME ( #86, #128 ) ;
#254 = CC_DESIGN_APPROVAL ( #100, ( #239 ) ) ;
#255 = AXIS2_PLACEMENT_3D ( 'NONE', #49, #130, #214 ) ;
#256 = DIRECTION ( 'NONE',  ( 3.491481338843133355E-15, -1.224646799147353207E-16, 1.000000000000000000 ) ) ;
#257 = CARTESIAN_POINT ( 'NONE',  ( 1.396592535537253342E-14, 2.718314606074609388E-33, 4.000000000000000000 ) ) ;
#258 = CONICAL_SURFACE ( 'NONE', #10, 0.7499999999999971134, 0.2617993877991428575 ) ;
#259 = CARTESIAN_POINT ( 'NONE',  ( -3.520454698997177837E-32, 1.234809285877111887E-33, -1.008298300160368029E-17 ) ) ;
#260 = CARTESIAN_POINT ( 'NONE',  ( 1.668721915867688301E-14, -5.853088573606777450E-16, 4.779409522551257616 ) ) ;
#261 = DIRECTION ( 'NONE',  ( -3.491481338843133355E-15, 1.224646799147353207E-16, -1.000000000000000000 ) ) ;
#262 = MANIFOLD_SOLID_BREP ( 'Corps-Déplacer/Copier1[2]', #235 ) ;
#263 = EDGE_LOOP ( 'NONE', ( #208 ) ) ;
#264 = DIRECTION ( 'NONE',  ( -3.491481338843133355E-15, 1.224646799147353207E-16, -1.000000000000000000 ) ) ;
#265 = CIRCLE ( 'NONE', #50, 0.7499999999999998890 ) ;
#266 = MECHANICAL_CONTEXT ( 'NONE', #210, 'mechanical' ) ;
#267 = APPROVAL ( #187, 'UNSPECIFIED' ) ;
#268 = FACE_BOUND ( 'NONE', #218, .T. ) ;
#269 = APPROVAL_ROLE ( '' ) ;
#270 =( NAMED_UNIT ( * ) SI_UNIT ( $, .STERADIAN. ) SOLID_ANGLE_UNIT ( ) );
#271 = FACE_OUTER_BOUND ( 'NONE', #249, .T. ) ;
#272 = PRODUCT ( '62335', '62335', '', ( #266 ) ) ;
#273 = PERSON_AND_ORGANIZATION_ROLE ( 'design_owner' ) ;
#274 = COORDINATED_UNIVERSAL_TIME_OFFSET ( 1, 0, .AHEAD. ) ;
#275 = VERTEX_POINT ( 'NONE', #43 ) ;
#276 = CIRCLE ( 'NONE', #91, 0.6000000000000000888 ) ;
#277 = APPROVAL_PERSON_ORGANIZATION ( #207, #100, #269 ) ;
#278 = AXIS2_PLACEMENT_3D ( 'NONE', #283, #157, #203 ) ;
#279 = CC_DESIGN_PERSON_AND_ORGANIZATION_ASSIGNMENT ( #84, #231, ( #64 ) ) ;
#280 = AXIS2_PLACEMENT_3D ( 'NONE', #52, #131, #54 ) ;
#281 = DIRECTION ( 'NONE',  ( 3.491481338843133355E-15, -1.224646799147353207E-16, 1.000000000000000000 ) ) ;
#282 = CARTESIAN_POINT ( 'NONE',  ( 1.623538822562057326E-14, -5.421010862427522170E-16, 4.650000000000000355 ) ) ;
#283 = CARTESIAN_POINT ( 'NONE',  ( 1.396592535537253342E-14, -4.898587196589412829E-16, 4.000000000000000000 ) ) ;
ENDSEC;
END-ISO-10303-21;
