ISO-10303-21;
HEADER;
FILE_DESCRIPTION (( 'STEP AP203' ),
    '1' );
FILE_NAME ('62334.step',
    '2021-12-16T10:16:19',
    ( '' ),
    ( '' ),
    'SwSTEP 2.0',
    'SolidWorks 2019',
    '' );
FILE_SCHEMA (( 'CONFIG_CONTROL_DESIGN' ));
ENDSEC;

DATA;
#1 = EDGE_LOOP ( 'NONE', ( #238 ) ) ;
#2 = DIRECTION ( 'NONE',  ( -3.491481338843133355E-15, 1.224646799147353207E-16, -1.000000000000000000 ) ) ;
#3 = AXIS2_PLACEMENT_3D ( 'NONE', #214, #143, #145 ) ;
#4 = DIRECTION ( 'NONE',  ( -3.491481338843133355E-15, 1.224646799147353207E-16, -1.000000000000000000 ) ) ;
#5 = CARTESIAN_POINT ( 'NONE',  ( 1.117274028429802674E-14, 2.718314606074611098E-33, 3.200000000000000178 ) ) ;
#6 = VERTEX_POINT ( 'NONE', #123 ) ;
#7 = DIRECTION ( 'NONE',  ( -3.491481338843133355E-15, 1.224646799147353207E-16, -1.000000000000000000 ) ) ;
#8 = CARTESIAN_POINT ( 'NONE',  ( 1.117274028429802674E-14, 2.718314606074611098E-33, 3.200000000000000178 ) ) ;
#9 = DIRECTION ( 'NONE',  ( -3.491481338843133355E-15, 1.224646799147353207E-16, -1.000000000000000000 ) ) ;
#10 = CC_DESIGN_APPROVAL ( #276, ( #66 ) ) ;
#11 = APPROVAL ( #179, 'UNSPECIFIED' ) ;
#12 = EDGE_CURVE ( 'NONE', #187, #187, #119, .T. ) ;
#13 = AXIS2_PLACEMENT_3D ( 'NONE', #114, #122, #201 ) ;
#14 = DIRECTION ( 'NONE',  ( 1.000000000000000000, 0.0000000000000000000, 0.0000000000000000000 ) ) ;
#15 = EDGE_LOOP ( 'NONE', ( #61 ) ) ;
#16 = TOROIDAL_SURFACE ( 'NONE', #220, 0.8624999999999999334, 0.5000000000000000000 ) ;
#17 = PERSON_AND_ORGANIZATION_ROLE ( 'classification_officer' ) ;
#18 = CARTESIAN_POINT ( 'NONE',  ( 1.047444401652940007E-13, -3.673940397442059178E-15, 30.00000000000000000 ) ) ;
#19 = CYLINDRICAL_SURFACE ( 'NONE', #91, 0.3624999999999998224 ) ;
#20 = ADVANCED_FACE ( 'NONE', ( #163 ), #161, .F. ) ;
#21 = PERSON_AND_ORGANIZATION ( #116, #57 ) ;
#22 = DIRECTION ( 'NONE',  ( -3.491481338843133355E-15, 1.224646799147353207E-16, -1.000000000000000000 ) ) ;
#23 = FACE_OUTER_BOUND ( 'NONE', #209, .T. ) ;
#24 = CC_DESIGN_SECURITY_CLASSIFICATION ( #172, ( #66 ) ) ;
#25 = AXIS2_PLACEMENT_3D ( 'NONE', #165, #65, #242 ) ;
#26 = DIRECTION ( 'NONE',  ( 0.0000000000000000000, -1.000000000000000000, 0.0000000000000000000 ) ) ;
#27 = CARTESIAN_POINT ( 'NONE',  ( 1.856829969409413215E-15, -6.512882807936099391E-17, 0.5318172400785778908 ) ) ;
#28 = PLANE ( 'NONE',  #35 ) ;
#29 = LOCAL_TIME ( 11, 16, 19.00000000000000000, #156 ) ;
#30 = ADVANCED_FACE ( 'NONE', ( #140 ), #87, .F. ) ;
#31 = EDGE_CURVE ( 'NONE', #226, #226, #53, .T. ) ;
#32 = DIRECTION ( 'NONE',  ( -3.491481338843133355E-15, 1.224646799147353207E-16, -1.000000000000000000 ) ) ;
#33 = PRODUCT_DEFINITION ( 'UNKNOWN', '', #66, #157 ) ;
#34 = VERTEX_POINT ( 'NONE', #233 ) ;
#35 = AXIS2_PLACEMENT_3D ( 'NONE', #8, #249, #77 ) ;
#36 = CIRCLE ( 'NONE', #281, 0.3795370868554650556 ) ;
#37 = APPLICATION_PROTOCOL_DEFINITION ( 'international standard', 'config_control_design', 1994, #90 ) ;
#38 = ORIENTED_EDGE ( 'NONE', *, *, #144, .F. ) ;
#39 = SECURITY_CLASSIFICATION_LEVEL ( 'unclassified' ) ;
#40 = CARTESIAN_POINT ( 'NONE',  ( 1.802301248426522154E-14, -6.321621801123950314E-16, 5.161995936726662570 ) ) ;
#41 = CC_DESIGN_APPROVAL ( #11, ( #33 ) ) ;
#42 = DIRECTION ( 'NONE',  ( 4.275831445896958607E-31, 1.000000000000000000, 1.224646799147353207E-16 ) ) ;
#43 = FACE_OUTER_BOUND ( 'NONE', #217, .T. ) ;
#44 = APPROVAL_DATE_TIME ( #208, #204 ) ;
#45 = ORIENTED_EDGE ( 'NONE', *, *, #31, .F. ) ;
#46 = PRODUCT_DEFINITION_SHAPE ( 'NONE', 'NONE',  #33 ) ;
#47 = AXIS2_PLACEMENT_3D ( 'NONE', #71, #221, #86 ) ;
#48 = FACE_OUTER_BOUND ( 'NONE', #283, .T. ) ;
#49 = CC_DESIGN_DATE_AND_TIME_ASSIGNMENT ( #69, #212, ( #172 ) ) ;
#50 = COORDINATED_UNIVERSAL_TIME_OFFSET ( 1, 0, .AHEAD. ) ;
#51 = CYLINDRICAL_SURFACE ( 'NONE', #252, 0.7499999999999984457 ) ;
#52 = CARTESIAN_POINT ( 'NONE',  ( 1.042207179644675275E-13, -3.655570695454848748E-15, 29.84999999999999787 ) ) ;
#53 = CIRCLE ( 'NONE', #193, 0.7499999999999970024 ) ;
#54 = DIRECTION ( 'NONE',  ( 0.0000000000000000000, 1.000000000000000000, 0.0000000000000000000 ) ) ;
#55 = CARTESIAN_POINT ( 'NONE',  ( 1.047444401652940007E-13, -3.673940397442059178E-15, 30.00000000000000000 ) ) ;
#56 = EDGE_LOOP ( 'NONE', ( #225 ) ) ;
#57 = ORGANIZATION ( 'UNSPECIFIED', 'UNSPECIFIED', '' ) ;
#58 = DATE_AND_TIME ( #174, #141 ) ;
#59 = AXIS2_PLACEMENT_3D ( 'NONE', #52, #9, #105 ) ;
#60 = COORDINATED_UNIVERSAL_TIME_OFFSET ( 1, 0, .AHEAD. ) ;
#61 = ORIENTED_EDGE ( 'NONE', *, *, #273, .T. ) ;
#62 = ADVANCED_FACE ( 'NONE', ( #23, #178 ), #120, .T. ) ;
#63 = APPROVAL_DATE_TIME ( #237, #11 ) ;
#64 = ORIENTED_EDGE ( 'NONE', *, *, #113, .T. ) ;
#65 = DIRECTION ( 'NONE',  ( -3.491481338843133355E-15, 1.224646799147353207E-16, -1.000000000000000000 ) ) ;
#66 = PRODUCT_DEFINITION_FORMATION_WITH_SPECIFIED_SOURCE ( 'ANY', '', #168, .NOT_KNOWN. ) ;
#67 = APPLICATION_PROTOCOL_DEFINITION ( 'international standard', 'config_control_design', 1994, #72 ) ;
#68 = DIRECTION ( 'NONE',  ( 4.275831445896957731E-31, 1.000000000000000000, 1.224646799147352961E-16 ) ) ;
#69 = DATE_AND_TIME ( #185, #118 ) ;
#70 = DIRECTION ( 'NONE',  ( 3.491481338843133355E-15, -1.224646799147353207E-16, 1.000000000000000000 ) ) ;
#71 = CARTESIAN_POINT ( 'NONE',  ( 1.117274028429802674E-14, -3.918869757271530460E-16, 3.200000000000000178 ) ) ;
#72 = APPLICATION_CONTEXT ( 'configuration controlled 3d designs of mechanical parts and assemblies' ) ;
#73 = FACE_OUTER_BOUND ( 'NONE', #177, .T. ) ;
#74 = ADVANCED_FACE ( 'NONE', ( #182, #159 ), #19, .T. ) ;
#75 = DIRECTION ( 'NONE',  ( -3.491481338843133355E-15, 1.224646799147353207E-16, -1.000000000000000000 ) ) ;
#76 = VERTEX_POINT ( 'NONE', #101 ) ;
#77 = DIRECTION ( 'NONE',  ( -4.275831445896958607E-31, -1.000000000000000000, -1.224646799147353207E-16 ) ) ;
#78 = AXIS2_PLACEMENT_3D ( 'NONE', #55, #80, #54 ) ;
#79 = CLOSED_SHELL ( 'NONE', ( #30, #81, #74, #234 ) ) ;
#80 = DIRECTION ( 'NONE',  ( -3.491481338843133355E-15, 1.224646799147353207E-16, -1.000000000000000000 ) ) ;
#81 = ADVANCED_FACE ( 'NONE', ( #262, #210 ), #241, .T. ) ;
#82 = AXIS2_PLACEMENT_3D ( 'NONE', #222, #94, #68 ) ;
#83 = COORDINATED_UNIVERSAL_TIME_OFFSET ( 1, 0, .AHEAD. ) ;
#84 = APPROVAL_STATUS ( 'not_yet_approved' ) ;
#85 = PERSON_AND_ORGANIZATION ( #116, #57 ) ;
#86 = DIRECTION ( 'NONE',  ( 0.0000000000000000000, 1.000000000000000000, 0.0000000000000000000 ) ) ;
#87 = PLANE ( 'NONE',  #13 ) ;
#88 = CARTESIAN_POINT ( 'NONE',  ( 0.0000000000000000000, 0.0000000000000000000, 0.0000000000000000000 ) ) ;
#89 = FACE_BOUND ( 'NONE', #1, .T. ) ;
#90 = APPLICATION_CONTEXT ( 'configuration controlled 3d designs of mechanical parts and assemblies' ) ;
#91 = AXIS2_PLACEMENT_3D ( 'NONE', #263, #2, #42 ) ;
#92 = DIRECTION ( 'NONE',  ( 0.0000000000000000000, 1.000000000000000000, 0.0000000000000000000 ) ) ;
#93 = MANIFOLD_SOLID_BREP ( 'Corps-Déplacer/Copier1[2]', #79 ) ;
#94 = DIRECTION ( 'NONE',  ( -3.491481338843133355E-15, 1.224646799147353207E-16, -1.000000000000000000 ) ) ;
#95 = CC_DESIGN_PERSON_AND_ORGANIZATION_ASSIGNMENT ( #218, #239, ( #66 ) ) ;
#96 = CARTESIAN_POINT ( 'NONE',  ( 1.117274028429802674E-14, 0.3624999999999996003, 3.200000000000000178 ) ) ;
#97 = MANIFOLD_SOLID_BREP ( 'Corps-Déplacer/Copier1[1]', #206 ) ;
#98 = ADVANCED_FACE ( 'NONE', ( #264, #43 ), #124, .T. ) ;
#99 = AXIS2_PLACEMENT_3D ( 'NONE', #88, #110, #14 ) ;
#100 = CALENDAR_DATE ( 2021, 16, 12 ) ;
#101 = CARTESIAN_POINT ( 'NONE',  ( 1.042207179644675275E-13, 0.7499999999999962252, 29.84999999999999787 ) ) ;
#102 = VERTEX_POINT ( 'NONE', #269 ) ;
#103 =( NAMED_UNIT ( * ) SI_UNIT ( $, .STERADIAN. ) SOLID_ANGLE_UNIT ( ) );
#104 = ADVANCED_BREP_SHAPE_REPRESENTATION ( '62334', ( #97, #93, #99 ), #270 ) ;
#105 = DIRECTION ( 'NONE',  ( 0.0000000000000000000, 1.000000000000000000, 0.0000000000000000000 ) ) ;
#106 = AXIS2_PLACEMENT_3D ( 'NONE', #223, #22, #117 ) ;
#107 = EDGE_LOOP ( 'NONE', ( #45 ) ) ;
#108 = APPROVAL_PERSON_ORGANIZATION ( #279, #276, #197 ) ;
#109 = APPROVAL_ROLE ( '' ) ;
#110 = DIRECTION ( 'NONE',  ( 0.0000000000000000000, 0.0000000000000000000, 1.000000000000000000 ) ) ;
#111 = EDGE_LOOP ( 'NONE', ( #115 ) ) ;
#112 = CALENDAR_DATE ( 2021, 16, 12 ) ;
#113 = EDGE_CURVE ( 'NONE', #125, #125, #266, .T. ) ;
#114 = CARTESIAN_POINT ( 'NONE',  ( -3.520454698997179479E-32, 1.234809285877112571E-33, -1.008298300160368491E-17 ) ) ;
#115 = ORIENTED_EDGE ( 'NONE', *, *, #129, .T. ) ;
#116 = PERSON ( 'UNSPECIFIED', 'UNSPECIFIED', 'UNSPECIFIED', ('UNSPECIFIED'), ('UNSPECIFIED'), ('UNSPECIFIED') ) ;
#117 = DIRECTION ( 'NONE',  ( 4.275831445896958607E-31, 1.000000000000000000, 1.224646799147353207E-16 ) ) ;
#118 = LOCAL_TIME ( 11, 16, 19.00000000000000000, #50 ) ;
#119 = CIRCLE ( 'NONE', #25, 0.3625000000000000444 ) ;
#120 = CYLINDRICAL_SURFACE ( 'NONE', #82, 0.3624999999999999889 ) ;
#121 = ADVANCED_FACE ( 'NONE', ( #48, #89 ), #224, .T. ) ;
#122 = DIRECTION ( 'NONE',  ( 3.491481338843133355E-15, -1.224646799147353207E-16, 1.000000000000000000 ) ) ;
#123 = CARTESIAN_POINT ( 'NONE',  ( 1.319573781983374966E-14, 0.3795370868554645560, 3.779409522551256728 ) ) ;
#124 = CONICAL_SURFACE ( 'NONE', #228, 0.7499999999999970024, 0.2617993877991428575 ) ;
#125 = VERTEX_POINT ( 'NONE', #96 ) ;
#126 =( NAMED_UNIT ( * ) PLANE_ANGLE_UNIT ( ) SI_UNIT ( $, .RADIAN. ) );
#127 = CARTESIAN_POINT ( 'NONE',  ( 1.274390688677743675E-14, -4.336808689942017736E-16, 3.649999999999999911 ) ) ;
#128 = VERTEX_POINT ( 'NONE', #186 ) ;
#129 = EDGE_CURVE ( 'NONE', #34, #34, #275, .T. ) ;
#130 = ORIENTED_EDGE ( 'NONE', *, *, #113, .F. ) ;
#131 = PERSON_AND_ORGANIZATION ( #116, #57 ) ;
#132 = EDGE_CURVE ( 'NONE', #102, #102, #248, .T. ) ;
#133 = PERSON_AND_ORGANIZATION ( #116, #57 ) ;
#134 = PERSON_AND_ORGANIZATION ( #116, #57 ) ;
#135 = CARTESIAN_POINT ( 'NONE',  ( 1.802301248426522154E-14, -6.321621801123950314E-16, 5.161995936726662570 ) ) ;
#136 = LOCAL_TIME ( 11, 16, 19.00000000000000000, #60 ) ;
#137 = DIRECTION ( 'NONE',  ( 0.0000000000000000000, -1.000000000000000000, 0.0000000000000000000 ) ) ;
#138 = COORDINATED_UNIVERSAL_TIME_OFFSET ( 1, 0, .AHEAD. ) ;
#139 = DIRECTION ( 'NONE',  ( 0.0000000000000000000, 1.000000000000000000, 0.0000000000000000000 ) ) ;
#140 = FACE_OUTER_BOUND ( 'NONE', #111, .T. ) ;
#141 = LOCAL_TIME ( 11, 16, 19.00000000000000000, #83 ) ;
#142 = DIRECTION ( 'NONE',  ( 3.491481338843133355E-15, -1.224646799147353207E-16, 1.000000000000000000 ) ) ;
#143 = DIRECTION ( 'NONE',  ( -3.491481338843133355E-15, 1.224646799147353207E-16, -1.000000000000000000 ) ) ;
#144 = EDGE_CURVE ( 'NONE', #173, #173, #171, .T. ) ;
#145 = DIRECTION ( 'NONE',  ( 4.275831445896958607E-31, 1.000000000000000000, 1.224646799147353207E-16 ) ) ;
#146 = CARTESIAN_POINT ( 'NONE',  ( 1.047444401652940007E-13, 0.5999999999999963141, 30.00000000000000000 ) ) ;
#147 = DIRECTION ( 'NONE',  ( 0.0000000000000000000, 1.000000000000000000, 0.0000000000000000000 ) ) ;
#148 = FACE_OUTER_BOUND ( 'NONE', #15, .T. ) ;
#149 = AXIS2_PLACEMENT_3D ( 'NONE', #183, #240, #137 ) ;
#150 = ORIENTED_EDGE ( 'NONE', *, *, #170, .T. ) ;
#151 = EDGE_LOOP ( 'NONE', ( #280 ) ) ;
#152 = PERSON_AND_ORGANIZATION_ROLE ( 'creator' ) ;
#153 = EDGE_LOOP ( 'NONE', ( #236 ) ) ;
#154 = CIRCLE ( 'NONE', #162, 0.3624999999999996558 ) ;
#155 = ADVANCED_FACE ( 'NONE', ( #253, #272 ), #16, .F. ) ;
#156 = COORDINATED_UNIVERSAL_TIME_OFFSET ( 1, 0, .AHEAD. ) ;
#157 = DESIGN_CONTEXT ( 'detailed design', #90, 'design' ) ;
#158 = ORIENTED_EDGE ( 'NONE', *, *, #31, .T. ) ;
#159 = FACE_OUTER_BOUND ( 'NONE', #219, .T. ) ;
#160 = CC_DESIGN_PERSON_AND_ORGANIZATION_ASSIGNMENT ( #85, #176, ( #168 ) ) ;
#161 = PLANE ( 'NONE',  #190 ) ;
#162 = AXIS2_PLACEMENT_3D ( 'NONE', #27, #75, #147 ) ;
#163 = FACE_OUTER_BOUND ( 'NONE', #175, .T. ) ;
#164 = CC_DESIGN_PERSON_AND_ORGANIZATION_ASSIGNMENT ( #131, #152, ( #66 ) ) ;
#165 = CARTESIAN_POINT ( 'NONE',  ( 1.274390688677743675E-14, -4.469960816887839416E-16, 3.649999999999999911 ) ) ;
#166 = EDGE_LOOP ( 'NONE', ( #38 ) ) ;
#167 = DIRECTION ( 'NONE',  ( 4.275831445896958607E-31, 1.000000000000000000, 1.224646799147353207E-16 ) ) ;
#168 = PRODUCT ( '62334', '62334', '', ( #243 ) ) ;
#169 = APPROVAL_STATUS ( 'not_yet_approved' ) ;
#170 = EDGE_CURVE ( 'NONE', #128, #128, #154, .T. ) ;
#171 = CIRCLE ( 'NONE', #78, 0.6000000000000000888 ) ;
#172 = SECURITY_CLASSIFICATION ( '', '', #39 ) ;
#173 = VERTEX_POINT ( 'NONE', #146 ) ;
#174 = CALENDAR_DATE ( 2021, 16, 12 ) ;
#175 = EDGE_LOOP ( 'NONE', ( #246 ) ) ;
#176 = PERSON_AND_ORGANIZATION_ROLE ( 'design_owner' ) ;
#177 = EDGE_LOOP ( 'NONE', ( #130 ) ) ;
#178 = FACE_OUTER_BOUND ( 'NONE', #274, .T. ) ;
#179 = APPROVAL_STATUS ( 'not_yet_approved' ) ;
#180 = DIRECTION ( 'NONE',  ( -3.491481338843133355E-15, 1.224646799147353207E-16, -1.000000000000000000 ) ) ;
#181 = SHAPE_DEFINITION_REPRESENTATION ( #46, #104 ) ;
#182 = FACE_OUTER_BOUND ( 'NONE', #215, .T. ) ;
#183 = CARTESIAN_POINT ( 'NONE',  ( 1.856829969409413215E-15, -6.512882807936099391E-17, 0.5318172400785778908 ) ) ;
#184 = DIRECTION ( 'NONE',  ( 4.275831445896958607E-31, 1.000000000000000000, 1.224646799147353454E-16 ) ) ;
#185 = CALENDAR_DATE ( 2021, 16, 12 ) ;
#186 = CARTESIAN_POINT ( 'NONE',  ( 1.856829969409413215E-15, 0.3624999999999996003, 0.5318172400785778908 ) ) ;
#187 = VERTEX_POINT ( 'NONE', #189 ) ;
#188 = AXIS2_PLACEMENT_3D ( 'NONE', #205, #4, #92 ) ;
#189 = CARTESIAN_POINT ( 'NONE',  ( 1.274390688677743675E-14, 0.3624999999999996003, 3.649999999999999911 ) ) ;
#190 = AXIS2_PLACEMENT_3D ( 'NONE', #5, #142, #247 ) ;
#191 = ORIENTED_EDGE ( 'NONE', *, *, #170, .F. ) ;
#192 = ADVANCED_FACE ( 'NONE', ( #268, #148 ), #51, .T. ) ;
#193 = AXIS2_PLACEMENT_3D ( 'NONE', #135, #203, #244 ) ;
#194 = CALENDAR_DATE ( 2021, 16, 12 ) ;
#195 = PERSON_AND_ORGANIZATION_ROLE ( 'creator' ) ;
#196 = EDGE_LOOP ( 'NONE', ( #150 ) ) ;
#197 = APPROVAL_ROLE ( '' ) ;
#198 = AXIS2_PLACEMENT_3D ( 'NONE', #18, #180, #139 ) ;
#199 = CC_DESIGN_PERSON_AND_ORGANIZATION_ASSIGNMENT ( #133, #195, ( #33 ) ) ;
#200 = ORIENTED_EDGE ( 'NONE', *, *, #132, .F. ) ;
#201 = DIRECTION ( 'NONE',  ( -4.275831445896958607E-31, -1.000000000000000000, -1.224646799147353207E-16 ) ) ;
#202 = EDGE_CURVE ( 'NONE', #6, #6, #36, .T. ) ;
#203 = DIRECTION ( 'NONE',  ( -3.491481338843133355E-15, 1.224646799147353207E-16, -1.000000000000000000 ) ) ;
#204 = APPROVAL ( #169, 'UNSPECIFIED' ) ;
#205 = CARTESIAN_POINT ( 'NONE',  ( 1.117274028429802674E-14, -3.918869757271530460E-16, 3.200000000000000178 ) ) ;
#206 = CLOSED_SHELL ( 'NONE', ( #20, #62, #155, #98, #192, #121, #207 ) ) ;
#207 = ADVANCED_FACE ( 'NONE', ( #213 ), #227, .F. ) ;
#208 = DATE_AND_TIME ( #100, #257 ) ;
#209 = EDGE_LOOP ( 'NONE', ( #200 ) ) ;
#210 = FACE_OUTER_BOUND ( 'NONE', #196, .T. ) ;
#211 = CC_DESIGN_PERSON_AND_ORGANIZATION_ASSIGNMENT ( #134, #17, ( #172 ) ) ;
#212 = DATE_TIME_ROLE ( 'classification_date' ) ;
#213 = FACE_OUTER_BOUND ( 'NONE', #166, .T. ) ;
#214 = CARTESIAN_POINT ( 'NONE',  ( 1.047444401652940007E-13, 4.499279347985518085E-33, 30.00000000000000000 ) ) ;
#215 = EDGE_LOOP ( 'NONE', ( #191 ) ) ;
#216 = PERSON_AND_ORGANIZATION ( #116, #57 ) ;
#217 = EDGE_LOOP ( 'NONE', ( #158 ) ) ;
#218 = PERSON_AND_ORGANIZATION ( #116, #57 ) ;
#219 = EDGE_LOOP ( 'NONE', ( #64 ) ) ;
#220 = AXIS2_PLACEMENT_3D ( 'NONE', #127, #250, #167 ) ;
#221 = DIRECTION ( 'NONE',  ( -3.491481338843133355E-15, 1.224646799147353207E-16, -1.000000000000000000 ) ) ;
#222 = CARTESIAN_POINT ( 'NONE',  ( 0.0000000000000000000, 0.0000000000000000000, 0.0000000000000000000 ) ) ;
#223 = CARTESIAN_POINT ( 'NONE',  ( -7.040909397994358958E-32, 2.469618571754225143E-33, -2.016596600320736982E-17 ) ) ;
#224 = CONICAL_SURFACE ( 'NONE', #198, 0.6000000000000000888, 0.7853981633974450594 ) ;
#225 = ORIENTED_EDGE ( 'NONE', *, *, #202, .T. ) ;
#226 = VERTEX_POINT ( 'NONE', #267 ) ;
#227 = PLANE ( 'NONE',  #3 ) ;
#228 = AXIS2_PLACEMENT_3D ( 'NONE', #40, #70, #26 ) ;
#229 = APPROVAL_PERSON_ORGANIZATION ( #21, #204, #245 ) ;
#230 =( LENGTH_UNIT ( ) NAMED_UNIT ( * ) SI_UNIT ( .MILLI., .METRE. ) );
#231 = PRODUCT_RELATED_PRODUCT_CATEGORY ( 'detail', '', ( #168 ) ) ;
#232 = CARTESIAN_POINT ( 'NONE',  ( 1.319573781983374966E-14, -4.628441774459423010E-16, 3.779409522551256728 ) ) ;
#233 = CARTESIAN_POINT ( 'NONE',  ( 2.365919782978951696E-32, 0.2200000000000000289, 6.776263578034402713E-18 ) ) ;
#234 = ADVANCED_FACE ( 'NONE', ( #73 ), #28, .T. ) ;
#235 = EDGE_LOOP ( 'NONE', ( #278 ) ) ;
#236 = ORIENTED_EDGE ( 'NONE', *, *, #12, .F. ) ;
#237 = DATE_AND_TIME ( #194, #136 ) ;
#238 = ORIENTED_EDGE ( 'NONE', *, *, #144, .T. ) ;
#239 = PERSON_AND_ORGANIZATION_ROLE ( 'design_supplier' ) ;
#240 = DIRECTION ( 'NONE',  ( 3.491481338843133355E-15, -1.224646799147353207E-16, 1.000000000000000000 ) ) ;
#241 = CONICAL_SURFACE ( 'NONE', #149, 0.3624999999999996558, 0.2617993877991427465 ) ;
#242 = DIRECTION ( 'NONE',  ( 0.0000000000000000000, 1.000000000000000000, 0.0000000000000000000 ) ) ;
#243 = MECHANICAL_CONTEXT ( 'NONE', #72, 'mechanical' ) ;
#244 = DIRECTION ( 'NONE',  ( 0.0000000000000000000, 1.000000000000000000, 0.0000000000000000000 ) ) ;
#245 = APPROVAL_ROLE ( '' ) ;
#246 = ORIENTED_EDGE ( 'NONE', *, *, #132, .T. ) ;
#247 = DIRECTION ( 'NONE',  ( -4.275831445896958607E-31, -1.000000000000000000, -1.224646799147353207E-16 ) ) ;
#248 = CIRCLE ( 'NONE', #188, 0.3624999999999999889 ) ;
#249 = DIRECTION ( 'NONE',  ( 3.491481338843133355E-15, -1.224646799147353207E-16, 1.000000000000000000 ) ) ;
#250 = DIRECTION ( 'NONE',  ( -3.491481338843133355E-15, 1.224646799147353207E-16, -1.000000000000000000 ) ) ;
#251 = CC_DESIGN_DATE_AND_TIME_ASSIGNMENT ( #277, #256, ( #33 ) ) ;
#252 = AXIS2_PLACEMENT_3D ( 'NONE', #254, #7, #184 ) ;
#253 = FACE_OUTER_BOUND ( 'NONE', #153, .T. ) ;
#254 = CARTESIAN_POINT ( 'NONE',  ( 0.0000000000000000000, 0.0000000000000000000, 0.0000000000000000000 ) ) ;
#255 = APPROVAL_PERSON_ORGANIZATION ( #216, #11, #109 ) ;
#256 = DATE_TIME_ROLE ( 'creation_date' ) ;
#257 = LOCAL_TIME ( 11, 16, 19.00000000000000000, #138 ) ;
#258 = UNCERTAINTY_MEASURE_WITH_UNIT (LENGTH_MEASURE( 1.000000000000000082E-05 ), #230, 'distance_accuracy_value', 'NONE');
#259 = ORIENTED_EDGE ( 'NONE', *, *, #12, .T. ) ;
#260 = ORIENTED_EDGE ( 'NONE', *, *, #273, .F. ) ;
#261 = CIRCLE ( 'NONE', #59, 0.7499999999999998890 ) ;
#262 = FACE_BOUND ( 'NONE', #151, .T. ) ;
#263 = CARTESIAN_POINT ( 'NONE',  ( 0.0000000000000000000, 0.0000000000000000000, 0.0000000000000000000 ) ) ;
#264 = FACE_BOUND ( 'NONE', #235, .T. ) ;
#265 = DIRECTION ( 'NONE',  ( 0.0000000000000000000, 1.000000000000000000, 0.0000000000000000000 ) ) ;
#266 = CIRCLE ( 'NONE', #47, 0.3624999999999999889 ) ;
#267 = CARTESIAN_POINT ( 'NONE',  ( 1.802301248426522154E-14, 0.7499999999999963363, 5.161995936726662570 ) ) ;
#268 = FACE_OUTER_BOUND ( 'NONE', #107, .T. ) ;
#269 = CARTESIAN_POINT ( 'NONE',  ( 1.117274028429802674E-14, 0.3624999999999996003, 3.200000000000000178 ) ) ;
#270 =( GEOMETRIC_REPRESENTATION_CONTEXT ( 3 ) GLOBAL_UNCERTAINTY_ASSIGNED_CONTEXT ( ( #258 ) ) GLOBAL_UNIT_ASSIGNED_CONTEXT ( ( #230, #126, #103 ) ) REPRESENTATION_CONTEXT ( 'NONE', 'WORKASPACE' ) );
#271 = CC_DESIGN_APPROVAL ( #204, ( #172 ) ) ;
#272 = FACE_OUTER_BOUND ( 'NONE', #56, .T. ) ;
#273 = EDGE_CURVE ( 'NONE', #76, #76, #261, .T. ) ;
#274 = EDGE_LOOP ( 'NONE', ( #259 ) ) ;
#275 = CIRCLE ( 'NONE', #106, 0.2200000000000000289 ) ;
#276 = APPROVAL ( #84, 'UNSPECIFIED' ) ;
#277 = DATE_AND_TIME ( #112, #29 ) ;
#278 = ORIENTED_EDGE ( 'NONE', *, *, #202, .F. ) ;
#279 = PERSON_AND_ORGANIZATION ( #116, #57 ) ;
#280 = ORIENTED_EDGE ( 'NONE', *, *, #129, .F. ) ;
#281 = AXIS2_PLACEMENT_3D ( 'NONE', #232, #32, #265 ) ;
#282 = APPROVAL_DATE_TIME ( #58, #276 ) ;
#283 = EDGE_LOOP ( 'NONE', ( #260 ) ) ;
ENDSEC;
END-ISO-10303-21;
