ISO-10303-21;
HEADER;
FILE_DESCRIPTION (( 'STEP AP203' ),
    '1' );
FILE_NAME ('62332.step',
    '2021-12-16T11:55:56',
    ( '' ),
    ( '' ),
    'SwSTEP 2.0',
    'SolidWorks 2019',
    '' );
FILE_SCHEMA (( 'CONFIG_CONTROL_DESIGN' ));
ENDSEC;

DATA;
#1 = MANIFOLD_SOLID_BREP ( 'Corps-Déplacer/Copier1[2]', #237 ) ;
#2 = AXIS2_PLACEMENT_3D ( 'NONE', #272, #161, #223 ) ;
#3 = PLANE ( 'NONE',  #257 ) ;
#4 = ADVANCED_FACE ( 'NONE', ( #129, #14 ), #252, .T. ) ;
#5 = CARTESIAN_POINT ( 'NONE',  ( 1.668721915867687986E-14, 0.3280370868554649544, 4.779409522551256728 ) ) ;
#6 = CARTESIAN_POINT ( 'NONE',  ( 1.396592535537253342E-14, -4.898587196589412829E-16, 4.000000000000000000 ) ) ;
#7 = APPLICATION_PROTOCOL_DEFINITION ( 'international standard', 'config_control_design', 1994, #58 ) ;
#8 = CLOSED_SHELL ( 'NONE', ( #232, #118, #62, #165, #4, #254, #270 ) ) ;
#9 = DATE_TIME_ROLE ( 'classification_date' ) ;
#10 = CARTESIAN_POINT ( 'NONE',  ( 1.396592535537253342E-14, 0.3109999999999995546, 4.000000000000000000 ) ) ;
#11 = AXIS2_PLACEMENT_3D ( 'NONE', #108, #231, #37 ) ;
#12 = LOCAL_TIME ( 12, 55, 56.00000000000000000, #142 ) ;
#13 =( NAMED_UNIT ( * ) SI_UNIT ( $, .STERADIAN. ) SOLID_ANGLE_UNIT ( ) );
#14 = FACE_OUTER_BOUND ( 'NONE', #176, .T. ) ;
#15 = ADVANCED_FACE ( 'NONE', ( #80, #170 ), #230, .T. ) ;
#16 = CARTESIAN_POINT ( 'NONE',  ( -2.879079982112635316E-32, 1.009845318477833828E-33, -8.246012802882654543E-18 ) ) ;
#17 = ORIENTED_EDGE ( 'NONE', *, *, #52, .F. ) ;
#18 = CALENDAR_DATE ( 2021, 16, 12 ) ;
#19 = EDGE_LOOP ( 'NONE', ( #85 ) ) ;
#20 = DIRECTION ( 'NONE',  ( 4.275831445896958607E-31, 1.000000000000000000, 1.224646799147353207E-16 ) ) ;
#21 = CC_DESIGN_APPROVAL ( #147, ( #96 ) ) ;
#22 = FACE_OUTER_BOUND ( 'NONE', #60, .T. ) ;
#23 = CARTESIAN_POINT ( 'NONE',  ( 1.623538822562057326E-14, -5.694607616035192869E-16, 4.650000000000000355 ) ) ;
#24 = AXIS2_PLACEMENT_3D ( 'NONE', #65, #177, #155 ) ;
#25 = VERTEX_POINT ( 'NONE', #70 ) ;
#26 = CARTESIAN_POINT ( 'NONE',  ( 1.576676675779219073E-15, -5.530237331650996038E-17, 0.4515781477158444801 ) ) ;
#27 = DATE_AND_TIME ( #168, #61 ) ;
#28 = PERSON_AND_ORGANIZATION ( #55, #154 ) ;
#29 = PERSON_AND_ORGANIZATION ( #55, #154 ) ;
#30 = ADVANCED_FACE ( 'NONE', ( #210 ), #194, .F. ) ;
#31 = ORIENTED_EDGE ( 'NONE', *, *, #156, .F. ) ;
#32 = DATE_AND_TIME ( #182, #132 ) ;
#33 = CIRCLE ( 'NONE', #107, 0.1900000000000000022 ) ;
#34 = DESIGN_CONTEXT ( 'detailed design', #92, 'design' ) ;
#35 = EDGE_CURVE ( 'NONE', #25, #25, #256, .T. ) ;
#36 = CARTESIAN_POINT ( 'NONE',  ( 0.0000000000000000000, 0.0000000000000000000, 0.0000000000000000000 ) ) ;
#37 = DIRECTION ( 'NONE',  ( 6.192700785811055591E-31, 1.000000000000000000, 1.743090309462227983E-16 ) ) ;
#38 = PERSON_AND_ORGANIZATION ( #55, #154 ) ;
#39 = FACE_OUTER_BOUND ( 'NONE', #128, .T. ) ;
#40 = CARTESIAN_POINT ( 'NONE',  ( 0.0000000000000000000, 0.0000000000000000000, 0.0000000000000000000 ) ) ;
#41 = ORIENTED_EDGE ( 'NONE', *, *, #222, .T. ) ;
#42 = CIRCLE ( 'NONE', #262, 0.6000000000000000888 ) ;
#43 = DIRECTION ( 'NONE',  ( 0.0000000000000000000, 1.000000000000000000, 0.0000000000000000000 ) ) ;
#44 = CC_DESIGN_PERSON_AND_ORGANIZATION_ASSIGNMENT ( #28, #164, ( #96 ) ) ;
#45 = DIRECTION ( 'NONE',  ( -3.491481338843133355E-15, 1.224646799147353207E-16, -1.000000000000000000 ) ) ;
#46 = DIRECTION ( 'NONE',  ( 0.0000000000000000000, -1.000000000000000000, 0.0000000000000000000 ) ) ;
#47 = AXIS2_PLACEMENT_3D ( 'NONE', #89, #174, #20 ) ;
#48 = CARTESIAN_POINT ( 'NONE',  ( 1.623538822562057326E-14, 0.3109999999999995546, 4.650000000000000355 ) ) ;
#49 = VERTEX_POINT ( 'NONE', #140 ) ;
#50 = CALENDAR_DATE ( 2021, 16, 12 ) ;
#51 = EDGE_LOOP ( 'NONE', ( #104 ) ) ;
#52 = EDGE_CURVE ( 'NONE', #115, #115, #137, .T. ) ;
#53 = APPROVAL_DATE_TIME ( #27, #147 ) ;
#54 = ORIENTED_EDGE ( 'NONE', *, *, #35, .T. ) ;
#55 = PERSON ( 'UNSPECIFIED', 'UNSPECIFIED', 'UNSPECIFIED', ('UNSPECIFIED'), ('UNSPECIFIED'), ('UNSPECIFIED') ) ;
#56 = APPROVAL_DATE_TIME ( #88, #190 ) ;
#57 = DIRECTION ( 'NONE',  ( -3.491481338843133355E-15, 1.224646799147353207E-16, -1.000000000000000000 ) ) ;
#58 = APPLICATION_CONTEXT ( 'configuration controlled 3d designs of mechanical parts and assemblies' ) ;
#59 = DIRECTION ( 'NONE',  ( -4.275831445896958607E-31, -1.000000000000000000, -1.224646799147353207E-16 ) ) ;
#60 = EDGE_LOOP ( 'NONE', ( #41 ) ) ;
#61 = LOCAL_TIME ( 12, 55, 56.00000000000000000, #78 ) ;
#62 = ADVANCED_FACE ( 'NONE', ( #150, #39 ), #172, .F. ) ;
#63 = FACE_OUTER_BOUND ( 'NONE', #75, .T. ) ;
#64 = EDGE_LOOP ( 'NONE', ( #148 ) ) ;
#65 = CARTESIAN_POINT ( 'NONE',  ( 1.042207179644675275E-13, -3.655570695454848748E-15, 29.84999999999999787 ) ) ;
#66 = CIRCLE ( 'NONE', #201, 0.3110000000000001097 ) ;
#67 = CARTESIAN_POINT ( 'NONE',  ( 1.047444401652940007E-13, -3.673940397442059178E-15, 30.00000000000000000 ) ) ;
#68 = DIRECTION ( 'NONE',  ( -3.491481338843133355E-15, 1.224646799147353207E-16, -1.000000000000000000 ) ) ;
#69 = CARTESIAN_POINT ( 'NONE',  ( 1.047444401652940007E-13, 0.5999999999999963141, 30.00000000000000000 ) ) ;
#70 = CARTESIAN_POINT ( 'NONE',  ( 2.218555868924579314E-14, 0.7499999999999963363, 6.354196553316463714 ) ) ;
#71 = APPROVAL_ROLE ( '' ) ;
#72 = SECURITY_CLASSIFICATION_LEVEL ( 'unclassified' ) ;
#73 = APPROVAL_STATUS ( 'not_yet_approved' ) ;
#74 = CONICAL_SURFACE ( 'NONE', #111, 0.3109999999999996101, 0.2617993877991428575 ) ;
#75 = EDGE_LOOP ( 'NONE', ( #130 ) ) ;
#76 = APPLICATION_PROTOCOL_DEFINITION ( 'international standard', 'config_control_design', 1994, #92 ) ;
#77 = EDGE_LOOP ( 'NONE', ( #185 ) ) ;
#78 = COORDINATED_UNIVERSAL_TIME_OFFSET ( 1, 0, .AHEAD. ) ;
#79 = AXIS2_PLACEMENT_3D ( 'NONE', #36, #276, #171 ) ;
#80 = FACE_OUTER_BOUND ( 'NONE', #211, .T. ) ;
#81 = AXIS2_PLACEMENT_3D ( 'NONE', #159, #97, #113 ) ;
#82 = EDGE_LOOP ( 'NONE', ( #249 ) ) ;
#83 = ORIENTED_EDGE ( 'NONE', *, *, #204, .F. ) ;
#84 = APPROVAL ( #73, 'UNSPECIFIED' ) ;
#85 = ORIENTED_EDGE ( 'NONE', *, *, #35, .F. ) ;
#86 = AXIS2_PLACEMENT_3D ( 'NONE', #258, #110, #279 ) ;
#87 = CC_DESIGN_APPROVAL ( #190, ( #275 ) ) ;
#88 = DATE_AND_TIME ( #18, #268 ) ;
#89 = CARTESIAN_POINT ( 'NONE',  ( 1.623538822562057010E-14, -5.421010862427522170E-16, 4.649999999999999467 ) ) ;
#90 = CARTESIAN_POINT ( 'NONE',  ( 1.396592535537253342E-14, 2.332126462039181451E-33, 4.000000000000000000 ) ) ;
#91 = DIRECTION ( 'NONE',  ( -6.192700785811055591E-31, -1.000000000000000000, -1.743090309462227983E-16 ) ) ;
#92 = APPLICATION_CONTEXT ( 'configuration controlled 3d designs of mechanical parts and assemblies' ) ;
#93 = CIRCLE ( 'NONE', #81, 0.3109999999999999987 ) ;
#94 = DIRECTION ( 'NONE',  ( 3.491481338843133355E-15, -1.224646799147353207E-16, 1.000000000000000000 ) ) ;
#95 = VERTEX_POINT ( 'NONE', #180 ) ;
#96 = PRODUCT_DEFINITION ( 'UNKNOWN', '', #114, #34 ) ;
#97 = DIRECTION ( 'NONE',  ( -3.491481338843133355E-15, 1.224646799147353207E-16, -1.000000000000000000 ) ) ;
#98 = AXIS2_PLACEMENT_3D ( 'NONE', #67, #134, #181 ) ;
#99 = PERSON_AND_ORGANIZATION ( #55, #154 ) ;
#100 = EDGE_CURVE ( 'NONE', #198, #198, #206, .T. ) ;
#101 = MECHANICAL_CONTEXT ( 'NONE', #58, 'mechanical' ) ;
#102 = PERSON_AND_ORGANIZATION_ROLE ( 'design_supplier' ) ;
#103 = LOCAL_TIME ( 12, 55, 56.00000000000000000, #245 ) ;
#104 = ORIENTED_EDGE ( 'NONE', *, *, #217, .T. ) ;
#105 = SHAPE_DEFINITION_REPRESENTATION ( #117, #175 ) ;
#106 = AXIS2_PLACEMENT_3D ( 'NONE', #191, #274, #193 ) ;
#107 = AXIS2_PLACEMENT_3D ( 'NONE', #239, #218, #219 ) ;
#108 = CARTESIAN_POINT ( 'NONE',  ( 1.576676675779219073E-15, -5.530237331650996038E-17, 0.4515781477158444801 ) ) ;
#109 = EDGE_LOOP ( 'NONE', ( #54 ) ) ;
#110 = DIRECTION ( 'NONE',  ( -3.491481338843133355E-15, 1.224646799147353207E-16, -1.000000000000000000 ) ) ;
#111 = AXIS2_PLACEMENT_3D ( 'NONE', #26, #116, #91 ) ;
#112 = FACE_OUTER_BOUND ( 'NONE', #120, .T. ) ;
#113 = DIRECTION ( 'NONE',  ( 0.0000000000000000000, 1.000000000000000000, 0.0000000000000000000 ) ) ;
#114 = PRODUCT_DEFINITION_FORMATION_WITH_SPECIFIED_SOURCE ( 'ANY', '', #160, .NOT_KNOWN. ) ;
#115 = VERTEX_POINT ( 'NONE', #241 ) ;
#116 = DIRECTION ( 'NONE',  ( 3.491481338843133355E-15, -1.224646799147353207E-16, 1.000000000000000000 ) ) ;
#117 = PRODUCT_DEFINITION_SHAPE ( 'NONE', 'NONE',  #96 ) ;
#118 = ADVANCED_FACE ( 'NONE', ( #63, #151 ), #234, .T. ) ;
#119 = DATE_AND_TIME ( #50, #103 ) ;
#120 = EDGE_LOOP ( 'NONE', ( #31 ) ) ;
#121 = PERSON_AND_ORGANIZATION ( #55, #154 ) ;
#122 = COORDINATED_UNIVERSAL_TIME_OFFSET ( 1, 0, .AHEAD. ) ;
#123 = EDGE_LOOP ( 'NONE', ( #228 ) ) ;
#124 = APPROVAL_STATUS ( 'not_yet_approved' ) ;
#125 = CC_DESIGN_SECURITY_CLASSIFICATION ( #275, ( #114 ) ) ;
#126 = AXIS2_PLACEMENT_3D ( 'NONE', #16, #253, #59 ) ;
#127 = CONICAL_SURFACE ( 'NONE', #173, 0.7499999999999971134, 0.2617993877991426910 ) ;
#128 = EDGE_LOOP ( 'NONE', ( #209 ) ) ;
#129 = FACE_OUTER_BOUND ( 'NONE', #19, .T. ) ;
#130 = ORIENTED_EDGE ( 'NONE', *, *, #222, .F. ) ;
#131 = FACE_OUTER_BOUND ( 'NONE', #109, .T. ) ;
#132 = LOCAL_TIME ( 12, 55, 56.00000000000000000, #122 ) ;
#133 = FACE_BOUND ( 'NONE', #123, .T. ) ;
#134 = DIRECTION ( 'NONE',  ( -3.491481338843133355E-15, 1.224646799147353207E-16, -1.000000000000000000 ) ) ;
#135 = CARTESIAN_POINT ( 'NONE',  ( 1.396592535537253342E-14, 2.332126462039181451E-33, 4.000000000000000000 ) ) ;
#136 = CC_DESIGN_DATE_AND_TIME_ASSIGNMENT ( #32, #200, ( #96 ) ) ;
#137 = CIRCLE ( 'NONE', #11, 0.3109999999999996101 ) ;
#138 = CC_DESIGN_APPROVAL ( #84, ( #114 ) ) ;
#139 = DIRECTION ( 'NONE',  ( 3.491481338843133355E-15, -1.224646799147353207E-16, 1.000000000000000000 ) ) ;
#140 = CARTESIAN_POINT ( 'NONE',  ( 1.042207179644675275E-13, 0.7499999999999962252, 29.84999999999999787 ) ) ;
#141 = PRODUCT_RELATED_PRODUCT_CATEGORY ( 'detail', '', ( #160 ) ) ;
#142 = COORDINATED_UNIVERSAL_TIME_OFFSET ( 1, 0, .AHEAD. ) ;
#143 = CARTESIAN_POINT ( 'NONE',  ( 2.365919782978951696E-32, 0.1900000000000000022, 6.776263578034402713E-18 ) ) ;
#144 = CC_DESIGN_PERSON_AND_ORGANIZATION_ASSIGNMENT ( #186, #102, ( #114 ) ) ;
#145 = CONICAL_SURFACE ( 'NONE', #98, 0.6000000000000000888, 0.7853981633974450594 ) ;
#146 = EDGE_LOOP ( 'NONE', ( #281 ) ) ;
#147 = APPROVAL ( #124, 'UNSPECIFIED' ) ;
#148 = ORIENTED_EDGE ( 'NONE', *, *, #52, .T. ) ;
#149 = AXIS2_PLACEMENT_3D ( 'NONE', #157, #240, #199 ) ;
#150 = FACE_OUTER_BOUND ( 'NONE', #233, .T. ) ;
#151 = FACE_OUTER_BOUND ( 'NONE', #183, .T. ) ;
#152 = EDGE_LOOP ( 'NONE', ( #212 ) ) ;
#153 = CARTESIAN_POINT ( 'NONE',  ( 1.047444401652940007E-13, -3.673940397442059178E-15, 30.00000000000000000 ) ) ;
#154 = ORGANIZATION ( 'UNSPECIFIED', 'UNSPECIFIED', '' ) ;
#155 = DIRECTION ( 'NONE',  ( 0.0000000000000000000, 1.000000000000000000, 0.0000000000000000000 ) ) ;
#156 = EDGE_CURVE ( 'NONE', #95, #95, #93, .T. ) ;
#157 = CARTESIAN_POINT ( 'NONE',  ( 1.047444401652940007E-13, 4.499279347985518085E-33, 30.00000000000000000 ) ) ;
#158 = VERTEX_POINT ( 'NONE', #48 ) ;
#159 = CARTESIAN_POINT ( 'NONE',  ( 1.396592535537253342E-14, -4.898587196589412829E-16, 4.000000000000000000 ) ) ;
#160 = PRODUCT ( '62332', '62332', '', ( #101 ) ) ;
#161 = DIRECTION ( 'NONE',  ( 0.0000000000000000000, 0.0000000000000000000, 1.000000000000000000 ) ) ;
#162 = AXIS2_PLACEMENT_3D ( 'NONE', #255, #57, #278 ) ;
#163 = APPROVAL_PERSON_ORGANIZATION ( #269, #84, #71 ) ;
#164 = PERSON_AND_ORGANIZATION_ROLE ( 'creator' ) ;
#165 = ADVANCED_FACE ( 'NONE', ( #244, #131 ), #127, .T. ) ;
#166 = APPROVAL_ROLE ( '' ) ;
#167 = ORIENTED_EDGE ( 'NONE', *, *, #204, .T. ) ;
#168 = CALENDAR_DATE ( 2021, 16, 12 ) ;
#169 = ORIENTED_EDGE ( 'NONE', *, *, #242, .T. ) ;
#170 = FACE_OUTER_BOUND ( 'NONE', #82, .T. ) ;
#171 = DIRECTION ( 'NONE',  ( 4.275831445896958607E-31, 1.000000000000000000, 1.224646799147353207E-16 ) ) ;
#172 = TOROIDAL_SURFACE ( 'NONE', #47, 0.8110000000000000542, 0.4999999999999997780 ) ;
#173 = AXIS2_PLACEMENT_3D ( 'NONE', #260, #139, #46 ) ;
#174 = DIRECTION ( 'NONE',  ( -3.491481338843133355E-15, 1.224646799147353207E-16, -1.000000000000000000 ) ) ;
#175 = ADVANCED_BREP_SHAPE_REPRESENTATION ( '62332', ( #189, #1, #2 ), #251 ) ;
#176 = EDGE_LOOP ( 'NONE', ( #169 ) ) ;
#177 = DIRECTION ( 'NONE',  ( -3.491481338843133355E-15, 1.224646799147353207E-16, -1.000000000000000000 ) ) ;
#178 = FACE_OUTER_BOUND ( 'NONE', #152, .T. ) ;
#179 = PLANE ( 'NONE',  #261 ) ;
#180 = CARTESIAN_POINT ( 'NONE',  ( 1.396592535537253342E-14, 0.3109999999999995546, 4.000000000000000000 ) ) ;
#181 = DIRECTION ( 'NONE',  ( 0.0000000000000000000, 1.000000000000000000, 0.0000000000000000000 ) ) ;
#182 = CALENDAR_DATE ( 2021, 16, 12 ) ;
#183 = EDGE_LOOP ( 'NONE', ( #167 ) ) ;
#184 = PERSON_AND_ORGANIZATION_ROLE ( 'classification_officer' ) ;
#185 = ORIENTED_EDGE ( 'NONE', *, *, #187, .F. ) ;
#186 = PERSON_AND_ORGANIZATION ( #55, #154 ) ;
#187 = EDGE_CURVE ( 'NONE', #266, #266, #42, .T. ) ;
#188 = CALENDAR_DATE ( 2021, 16, 12 ) ;
#189 = MANIFOLD_SOLID_BREP ( 'Corps-Déplacer/Copier1[1]', #8 ) ;
#190 = APPROVAL ( #208, 'UNSPECIFIED' ) ;
#191 = CARTESIAN_POINT ( 'NONE',  ( 0.0000000000000000000, 0.0000000000000000000, 0.0000000000000000000 ) ) ;
#192 = CIRCLE ( 'NONE', #224, 0.3109999999999999987 ) ;
#193 = DIRECTION ( 'NONE',  ( 4.275831445896958607E-31, 1.000000000000000000, 1.224646799147353454E-16 ) ) ;
#194 = PLANE ( 'NONE',  #126 ) ;
#195 = DIRECTION ( 'NONE',  ( 3.491481338843133355E-15, -1.224646799147353207E-16, 1.000000000000000000 ) ) ;
#196 = ADVANCED_FACE ( 'NONE', ( #112 ), #3, .T. ) ;
#197 = DIRECTION ( 'NONE',  ( 4.275831445896958607E-31, 1.000000000000000000, 1.224646799147353454E-16 ) ) ;
#198 = VERTEX_POINT ( 'NONE', #5 ) ;
#199 = DIRECTION ( 'NONE',  ( 4.275831445896958607E-31, 1.000000000000000000, 1.224646799147353207E-16 ) ) ;
#200 = DATE_TIME_ROLE ( 'creation_date' ) ;
#201 = AXIS2_PLACEMENT_3D ( 'NONE', #23, #68, #43 ) ;
#202 = PERSON_AND_ORGANIZATION_ROLE ( 'creator' ) ;
#203 = PERSON_AND_ORGANIZATION ( #55, #154 ) ;
#204 = EDGE_CURVE ( 'NONE', #158, #158, #66, .T. ) ;
#205 = APPROVAL_DATE_TIME ( #119, #84 ) ;
#206 = CIRCLE ( 'NONE', #86, 0.3280370868554655650 ) ;
#207 = APPROVAL_PERSON_ORGANIZATION ( #38, #190, #250 ) ;
#208 = APPROVAL_STATUS ( 'not_yet_approved' ) ;
#209 = ORIENTED_EDGE ( 'NONE', *, *, #100, .T. ) ;
#210 = FACE_OUTER_BOUND ( 'NONE', #51, .T. ) ;
#211 = EDGE_LOOP ( 'NONE', ( #17 ) ) ;
#212 = ORIENTED_EDGE ( 'NONE', *, *, #242, .F. ) ;
#213 = CC_DESIGN_DATE_AND_TIME_ASSIGNMENT ( #273, #9, ( #275 ) ) ;
#214 = DIRECTION ( 'NONE',  ( -3.491481338843133355E-15, 1.224646799147353207E-16, -1.000000000000000000 ) ) ;
#215 = CIRCLE ( 'NONE', #24, 0.7499999999999998890 ) ;
#216 = DIRECTION ( 'NONE',  ( -3.491481338843133355E-15, 1.224646799147353207E-16, -1.000000000000000000 ) ) ;
#217 = EDGE_CURVE ( 'NONE', #271, #271, #33, .T. ) ;
#218 = DIRECTION ( 'NONE',  ( -3.491481338843133355E-15, 1.224646799147353207E-16, -1.000000000000000000 ) ) ;
#219 = DIRECTION ( 'NONE',  ( 4.275831445896958607E-31, 1.000000000000000000, 1.224646799147353207E-16 ) ) ;
#220 = FACE_OUTER_BOUND ( 'NONE', #64, .T. ) ;
#221 = DIRECTION ( 'NONE',  ( 0.0000000000000000000, 1.000000000000000000, 0.0000000000000000000 ) ) ;
#222 = EDGE_CURVE ( 'NONE', #248, #248, #192, .T. ) ;
#223 = DIRECTION ( 'NONE',  ( 1.000000000000000000, 0.0000000000000000000, 0.0000000000000000000 ) ) ;
#224 = AXIS2_PLACEMENT_3D ( 'NONE', #6, #45, #221 ) ;
#225 =( LENGTH_UNIT ( ) NAMED_UNIT ( * ) SI_UNIT ( .MILLI., .METRE. ) );
#226 =( NAMED_UNIT ( * ) PLANE_ANGLE_UNIT ( ) SI_UNIT ( $, .RADIAN. ) );
#227 = PERSON_AND_ORGANIZATION_ROLE ( 'design_owner' ) ;
#228 = ORIENTED_EDGE ( 'NONE', *, *, #217, .F. ) ;
#229 = UNCERTAINTY_MEASURE_WITH_UNIT (LENGTH_MEASURE( 1.000000000000000082E-05 ), #225, 'distance_accuracy_value', 'NONE');
#230 = CYLINDRICAL_SURFACE ( 'NONE', #79, 0.3109999999999998321 ) ;
#231 = DIRECTION ( 'NONE',  ( -3.491481338843133355E-15, 1.224646799147353207E-16, -1.000000000000000000 ) ) ;
#232 = ADVANCED_FACE ( 'NONE', ( #22 ), #179, .F. ) ;
#233 = EDGE_LOOP ( 'NONE', ( #83 ) ) ;
#234 = CYLINDRICAL_SURFACE ( 'NONE', #247, 0.3110000000000000542 ) ;
#235 = EDGE_LOOP ( 'NONE', ( #259 ) ) ;
#236 = CC_DESIGN_PERSON_AND_ORGANIZATION_ASSIGNMENT ( #29, #227, ( #160 ) ) ;
#237 = CLOSED_SHELL ( 'NONE', ( #30, #246, #15, #196 ) ) ;
#238 = DIRECTION ( 'NONE',  ( 0.0000000000000000000, 1.000000000000000000, 0.0000000000000000000 ) ) ;
#239 = CARTESIAN_POINT ( 'NONE',  ( -5.758159964225270631E-32, 2.019690636955667655E-33, -1.649202560576530909E-17 ) ) ;
#240 = DIRECTION ( 'NONE',  ( -3.491481338843133355E-15, 1.224646799147353207E-16, -1.000000000000000000 ) ) ;
#241 = CARTESIAN_POINT ( 'NONE',  ( 1.576676675779219271E-15, 0.3109999999999995546, 0.4515781477158445356 ) ) ;
#242 = EDGE_CURVE ( 'NONE', #49, #49, #215, .T. ) ;
#243 = APPROVAL_PERSON_ORGANIZATION ( #121, #147, #166 ) ;
#244 = FACE_BOUND ( 'NONE', #235, .T. ) ;
#245 = COORDINATED_UNIVERSAL_TIME_OFFSET ( 1, 0, .AHEAD. ) ;
#246 = ADVANCED_FACE ( 'NONE', ( #133, #220 ), #74, .T. ) ;
#247 = AXIS2_PLACEMENT_3D ( 'NONE', #40, #214, #197 ) ;
#248 = VERTEX_POINT ( 'NONE', #10 ) ;
#249 = ORIENTED_EDGE ( 'NONE', *, *, #156, .T. ) ;
#250 = APPROVAL_ROLE ( '' ) ;
#251 =( GEOMETRIC_REPRESENTATION_CONTEXT ( 3 ) GLOBAL_UNCERTAINTY_ASSIGNED_CONTEXT ( ( #229 ) ) GLOBAL_UNIT_ASSIGNED_CONTEXT ( ( #225, #226, #13 ) ) REPRESENTATION_CONTEXT ( 'NONE', 'WORKASPACE' ) );
#252 = CYLINDRICAL_SURFACE ( 'NONE', #106, 0.7499999999999984457 ) ;
#253 = DIRECTION ( 'NONE',  ( 3.491481338843133355E-15, -1.224646799147353207E-16, 1.000000000000000000 ) ) ;
#254 = ADVANCED_FACE ( 'NONE', ( #178, #263 ), #145, .T. ) ;
#255 = CARTESIAN_POINT ( 'NONE',  ( 2.218555868924579314E-14, -7.781646470172152116E-16, 6.354196553316463714 ) ) ;
#256 = CIRCLE ( 'NONE', #162, 0.7499999999999971134 ) ;
#257 = AXIS2_PLACEMENT_3D ( 'NONE', #90, #94, #283 ) ;
#258 = CARTESIAN_POINT ( 'NONE',  ( 1.668721915867687986E-14, -5.853088573606776463E-16, 4.779409522551256728 ) ) ;
#259 = ORIENTED_EDGE ( 'NONE', *, *, #100, .F. ) ;
#260 = CARTESIAN_POINT ( 'NONE',  ( 2.218555868924579314E-14, -7.781646470172152116E-16, 6.354196553316463714 ) ) ;
#261 = AXIS2_PLACEMENT_3D ( 'NONE', #135, #195, #282 ) ;
#262 = AXIS2_PLACEMENT_3D ( 'NONE', #153, #216, #238 ) ;
#263 = FACE_BOUND ( 'NONE', #146, .T. ) ;
#264 = FACE_OUTER_BOUND ( 'NONE', #77, .T. ) ;
#265 = CC_DESIGN_PERSON_AND_ORGANIZATION_ASSIGNMENT ( #203, #202, ( #114 ) ) ;
#266 = VERTEX_POINT ( 'NONE', #69 ) ;
#267 = PLANE ( 'NONE',  #149 ) ;
#268 = LOCAL_TIME ( 12, 55, 56.00000000000000000, #280 ) ;
#269 = PERSON_AND_ORGANIZATION ( #55, #154 ) ;
#270 = ADVANCED_FACE ( 'NONE', ( #264 ), #267, .F. ) ;
#271 = VERTEX_POINT ( 'NONE', #143 ) ;
#272 = CARTESIAN_POINT ( 'NONE',  ( 0.0000000000000000000, 0.0000000000000000000, 0.0000000000000000000 ) ) ;
#273 = DATE_AND_TIME ( #188, #12 ) ;
#274 = DIRECTION ( 'NONE',  ( -3.491481338843133355E-15, 1.224646799147353207E-16, -1.000000000000000000 ) ) ;
#275 = SECURITY_CLASSIFICATION ( '', '', #72 ) ;
#276 = DIRECTION ( 'NONE',  ( -3.491481338843133355E-15, 1.224646799147353207E-16, -1.000000000000000000 ) ) ;
#277 = CC_DESIGN_PERSON_AND_ORGANIZATION_ASSIGNMENT ( #99, #184, ( #275 ) ) ;
#278 = DIRECTION ( 'NONE',  ( 0.0000000000000000000, 1.000000000000000000, 0.0000000000000000000 ) ) ;
#279 = DIRECTION ( 'NONE',  ( 0.0000000000000000000, 1.000000000000000000, 0.0000000000000000000 ) ) ;
#280 = COORDINATED_UNIVERSAL_TIME_OFFSET ( 1, 0, .AHEAD. ) ;
#281 = ORIENTED_EDGE ( 'NONE', *, *, #187, .T. ) ;
#282 = DIRECTION ( 'NONE',  ( -4.275831445896958607E-31, -1.000000000000000000, -1.224646799147353207E-16 ) ) ;
#283 = DIRECTION ( 'NONE',  ( -4.275831445896958607E-31, -1.000000000000000000, -1.224646799147353207E-16 ) ) ;
ENDSEC;
END-ISO-10303-21;
