ISO-10303-21;
HEADER;
FILE_DESCRIPTION (( 'STEP AP203' ),
    '1' );
FILE_NAME ('63331.step',
    '2021-12-16T10:16:23',
    ( '' ),
    ( '' ),
    'SwSTEP 2.0',
    'SolidWorks 2019',
    '' );
FILE_SCHEMA (( 'CONFIG_CONTROL_DESIGN' ));
ENDSEC;

DATA;
#1 = VERTEX_POINT ( 'NONE', #256 ) ;
#2 = DIRECTION ( 'NONE',  ( 0.0000000000000000000, 1.000000000000000000, 0.0000000000000000000 ) ) ;
#3 = COORDINATED_UNIVERSAL_TIME_OFFSET ( 1, 0, .AHEAD. ) ;
#4 = DIRECTION ( 'NONE',  ( 0.0000000000000000000, 1.000000000000000000, 0.0000000000000000000 ) ) ;
#5 = APPROVAL_PERSON_ORGANIZATION ( #178, #174, #96 ) ;
#6 = VERTEX_POINT ( 'NONE', #17 ) ;
#7 = PERSON_AND_ORGANIZATION ( #119, #76 ) ;
#8 = DIRECTION ( 'NONE',  ( -3.491481338843133355E-15, 1.224646799147353207E-16, -1.000000000000000000 ) ) ;
#9 = CC_DESIGN_PERSON_AND_ORGANIZATION_ASSIGNMENT ( #7, #129, ( #186 ) ) ;
#10 = AXIS2_PLACEMENT_3D ( 'NONE', #20, #210, #282 ) ;
#11 = PERSON_AND_ORGANIZATION ( #119, #76 ) ;
#12 = LOCAL_TIME ( 11, 16, 23.00000000000000000, #32 ) ;
#13 = DIRECTION ( 'NONE',  ( -3.491481338843133355E-15, 1.224646799147353207E-16, -1.000000000000000000 ) ) ;
#14 = EDGE_CURVE ( 'NONE', #36, #36, #201, .T. ) ;
#15 = FACE_OUTER_BOUND ( 'NONE', #154, .T. ) ;
#16 = EDGE_LOOP ( 'NONE', ( #222 ) ) ;
#17 = CARTESIAN_POINT ( 'NONE',  ( 1.117274028429802674E-14, 0.3109999999999992770, 3.200000000000000178 ) ) ;
#18 = DIRECTION ( 'NONE',  ( 3.491481338843133355E-15, -1.224646799147353207E-16, 1.000000000000000000 ) ) ;
#19 = FACE_BOUND ( 'NONE', #195, .T. ) ;
#20 = CARTESIAN_POINT ( 'NONE',  ( 1.117274028429802674E-14, 2.332126462039180082E-33, 3.200000000000000178 ) ) ;
#21 = VERTEX_POINT ( 'NONE', #209 ) ;
#22 = ORIENTED_EDGE ( 'NONE', *, *, #14, .F. ) ;
#23 = CONICAL_SURFACE ( 'NONE', #52, 0.7499999999999970024, 0.2617993877991428575 ) ;
#24 = AXIS2_PLACEMENT_3D ( 'NONE', #101, #142, #143 ) ;
#25 = ADVANCED_BREP_SHAPE_REPRESENTATION ( '63331', ( #70, #66, #138 ), #175 ) ;
#26 = EDGE_LOOP ( 'NONE', ( #71 ) ) ;
#27 = CC_DESIGN_DATE_AND_TIME_ASSIGNMENT ( #204, #92, ( #102 ) ) ;
#28 = DATE_AND_TIME ( #248, #162 ) ;
#29 = ADVANCED_FACE ( 'NONE', ( #141 ), #176, .F. ) ;
#30 = APPROVAL_STATUS ( 'not_yet_approved' ) ;
#31 = CIRCLE ( 'NONE', #105, 0.3109999999999996656 ) ;
#32 = COORDINATED_UNIVERSAL_TIME_OFFSET ( 1, 0, .AHEAD. ) ;
#33 = CONICAL_SURFACE ( 'NONE', #192, 0.6000000000000000888, 0.7853981633974450594 ) ;
#34 = CIRCLE ( 'NONE', #251, 0.3109999999999993325 ) ;
#35 = DIRECTION ( 'NONE',  ( 4.275831445896958607E-31, 1.000000000000000000, 1.224646799147353207E-16 ) ) ;
#36 = VERTEX_POINT ( 'NONE', #104 ) ;
#37 = FACE_BOUND ( 'NONE', #118, .T. ) ;
#38 = CARTESIAN_POINT ( 'NONE',  ( 1.274390688677743517E-14, -4.336808689942017736E-16, 3.649999999999999467 ) ) ;
#39 = CYLINDRICAL_SURFACE ( 'NONE', #278, 0.3109999999999994991 ) ;
#40 = DIRECTION ( 'NONE',  ( 0.0000000000000000000, 1.000000000000000000, 0.0000000000000000000 ) ) ;
#41 = PLANE ( 'NONE',  #133 ) ;
#42 =( NAMED_UNIT ( * ) PLANE_ANGLE_UNIT ( ) SI_UNIT ( $, .RADIAN. ) );
#43 = ADVANCED_FACE ( 'NONE', ( #267, #46 ), #81, .F. ) ;
#44 = ORIENTED_EDGE ( 'NONE', *, *, #53, .T. ) ;
#45 = ORIENTED_EDGE ( 'NONE', *, *, #112, .F. ) ;
#46 = FACE_OUTER_BOUND ( 'NONE', #238, .T. ) ;
#47 = COORDINATED_UNIVERSAL_TIME_OFFSET ( 1, 0, .AHEAD. ) ;
#48 = APPROVAL_DATE_TIME ( #28, #174 ) ;
#49 = FACE_BOUND ( 'NONE', #240, .T. ) ;
#50 = CARTESIAN_POINT ( 'NONE',  ( 1.319573781983374966E-14, -4.628441774459423010E-16, 3.779409522551256728 ) ) ;
#51 = DESIGN_CONTEXT ( 'detailed design', #137, 'design' ) ;
#52 = AXIS2_PLACEMENT_3D ( 'NONE', #232, #18, #63 ) ;
#53 = EDGE_CURVE ( 'NONE', #275, #275, #183, .T. ) ;
#54 = CARTESIAN_POINT ( 'NONE',  ( 0.0000000000000000000, 0.0000000000000000000, 0.0000000000000000000 ) ) ;
#55 = DIRECTION ( 'NONE',  ( -3.491481338843133355E-15, 1.224646799147353207E-16, -1.000000000000000000 ) ) ;
#56 = DIRECTION ( 'NONE',  ( 4.275831445896958607E-31, 1.000000000000000000, 1.224646799147353207E-16 ) ) ;
#57 = EDGE_LOOP ( 'NONE', ( #79 ) ) ;
#58 = CARTESIAN_POINT ( 'NONE',  ( 1.274390688677743675E-14, 0.3109999999999992770, 3.649999999999999911 ) ) ;
#59 = DIRECTION ( 'NONE',  ( -3.491481338843133355E-15, 1.224646799147353207E-16, -1.000000000000000000 ) ) ;
#60 = CC_DESIGN_PERSON_AND_ORGANIZATION_ASSIGNMENT ( #11, #266, ( #122 ) ) ;
#61 = AXIS2_PLACEMENT_3D ( 'NONE', #123, #168, #189 ) ;
#62 = CARTESIAN_POINT ( 'NONE',  ( 1.117274028429802674E-14, 0.3109999999999992770, 3.200000000000000178 ) ) ;
#63 = DIRECTION ( 'NONE',  ( 0.0000000000000000000, -1.000000000000000000, 0.0000000000000000000 ) ) ;
#64 =( LENGTH_UNIT ( ) NAMED_UNIT ( * ) SI_UNIT ( .MILLI., .METRE. ) );
#65 = DIRECTION ( 'NONE',  ( 6.192700785811060846E-31, 1.000000000000000000, 1.743090309462229462E-16 ) ) ;
#66 = MANIFOLD_SOLID_BREP ( 'Corps-Déplacer/Copier1[2]', #200 ) ;
#67 = ORIENTED_EDGE ( 'NONE', *, *, #93, .F. ) ;
#68 = AXIS2_PLACEMENT_3D ( 'NONE', #54, #230, #35 ) ;
#69 = CC_DESIGN_APPROVAL ( #78, ( #186 ) ) ;
#70 = MANIFOLD_SOLID_BREP ( 'Corps-Déplacer/Copier1[1]', #87 ) ;
#71 = ORIENTED_EDGE ( 'NONE', *, *, #274, .T. ) ;
#72 = EDGE_CURVE ( 'NONE', #21, #21, #194, .T. ) ;
#73 = APPLICATION_PROTOCOL_DEFINITION ( 'international standard', 'config_control_design', 1994, #137 ) ;
#74 = CALENDAR_DATE ( 2021, 16, 12 ) ;
#75 = AXIS2_PLACEMENT_3D ( 'NONE', #38, #13, #56 ) ;
#76 = ORGANIZATION ( 'UNSPECIFIED', 'UNSPECIFIED', '' ) ;
#77 = DIRECTION ( 'NONE',  ( -3.491481338843133355E-15, 1.224646799147353207E-16, -1.000000000000000000 ) ) ;
#78 = APPROVAL ( #216, 'UNSPECIFIED' ) ;
#79 = ORIENTED_EDGE ( 'NONE', *, *, #112, .T. ) ;
#80 = PLANE ( 'NONE',  #10 ) ;
#81 = TOROIDAL_SURFACE ( 'NONE', #75, 0.8109999999999996101, 0.5000000000000001110 ) ;
#82 = DIRECTION ( 'NONE',  ( -3.491481338843133355E-15, 1.224646799147353207E-16, -1.000000000000000000 ) ) ;
#83 = EDGE_CURVE ( 'NONE', #6, #6, #117, .T. ) ;
#84 = FACE_OUTER_BOUND ( 'NONE', #198, .T. ) ;
#85 = DIRECTION ( 'NONE',  ( -3.491481338843133355E-15, 1.224646799147353207E-16, -1.000000000000000000 ) ) ;
#86 = CALENDAR_DATE ( 2021, 16, 12 ) ;
#87 = CLOSED_SHELL ( 'NONE', ( #106, #213, #43, #155, #152, #145, #29 ) ) ;
#88 = FACE_OUTER_BOUND ( 'NONE', #144, .T. ) ;
#89 = VERTEX_POINT ( 'NONE', #58 ) ;
#90 = EDGE_LOOP ( 'NONE', ( #160 ) ) ;
#91 = MECHANICAL_CONTEXT ( 'NONE', #115, 'mechanical' ) ;
#92 = DATE_TIME_ROLE ( 'creation_date' ) ;
#93 = EDGE_CURVE ( 'NONE', #281, #281, #132, .T. ) ;
#94 = PRODUCT ( '63331', '63331', '', ( #91 ) ) ;
#95 = PERSON_AND_ORGANIZATION_ROLE ( 'design_owner' ) ;
#96 = APPROVAL_ROLE ( '' ) ;
#97 = EDGE_CURVE ( 'NONE', #113, #113, #220, .T. ) ;
#98 = PERSON_AND_ORGANIZATION ( #119, #76 ) ;
#99 = FACE_OUTER_BOUND ( 'NONE', #57, .T. ) ;
#100 = AXIS2_PLACEMENT_3D ( 'NONE', #280, #59, #2 ) ;
#101 = CARTESIAN_POINT ( 'NONE',  ( 1.576676675779215918E-15, -5.530237331650984945E-17, 0.4515781477158436474 ) ) ;
#102 = PRODUCT_DEFINITION ( 'UNKNOWN', '', #122, #51 ) ;
#103 = DIRECTION ( 'NONE',  ( -4.275831445896958607E-31, -1.000000000000000000, -1.224646799147353207E-16 ) ) ;
#104 = CARTESIAN_POINT ( 'NONE',  ( 1.319573781983374966E-14, 0.3280370868554640107, 3.779409522551256728 ) ) ;
#105 = AXIS2_PLACEMENT_3D ( 'NONE', #185, #77, #165 ) ;
#106 = ADVANCED_FACE ( 'NONE', ( #128 ), #80, .F. ) ;
#107 = CC_DESIGN_APPROVAL ( #174, ( #122 ) ) ;
#108 = CARTESIAN_POINT ( 'NONE',  ( 1.047444401652940007E-13, -3.673940397442059178E-15, 30.00000000000000000 ) ) ;
#109 = DIRECTION ( 'NONE',  ( 0.0000000000000000000, 1.000000000000000000, 0.0000000000000000000 ) ) ;
#110 = COORDINATED_UNIVERSAL_TIME_OFFSET ( 1, 0, .AHEAD. ) ;
#111 = PLANE ( 'NONE',  #121 ) ;
#112 = EDGE_CURVE ( 'NONE', #89, #89, #136, .T. ) ;
#113 = VERTEX_POINT ( 'NONE', #254 ) ;
#114 = ORIENTED_EDGE ( 'NONE', *, *, #83, .T. ) ;
#115 = APPLICATION_CONTEXT ( 'configuration controlled 3d designs of mechanical parts and assemblies' ) ;
#116 = ADVANCED_FACE ( 'NONE', ( #148 ), #111, .T. ) ;
#117 = CIRCLE ( 'NONE', #271, 0.3109999999999996656 ) ;
#118 = EDGE_LOOP ( 'NONE', ( #22 ) ) ;
#119 = PERSON ( 'UNSPECIFIED', 'UNSPECIFIED', 'UNSPECIFIED', ('UNSPECIFIED'), ('UNSPECIFIED'), ('UNSPECIFIED') ) ;
#120 = CALENDAR_DATE ( 2021, 16, 12 ) ;
#121 = AXIS2_PLACEMENT_3D ( 'NONE', #191, #170, #233 ) ;
#122 = PRODUCT_DEFINITION_FORMATION_WITH_SPECIFIED_SOURCE ( 'ANY', '', #94, .NOT_KNOWN. ) ;
#123 = CARTESIAN_POINT ( 'NONE',  ( -1.995367866209898354E-31, 6.998808337566841807E-33, -5.714960707397173461E-17 ) ) ;
#124 = CARTESIAN_POINT ( 'NONE',  ( 1.042207179644675275E-13, -3.655570695454848748E-15, 29.84999999999999787 ) ) ;
#125 = APPROVAL_PERSON_ORGANIZATION ( #211, #78, #149 ) ;
#126 = CARTESIAN_POINT ( 'NONE',  ( -1.182959891489475930E-31, 0.1900000000000000300, -3.388131789017201356E-17 ) ) ;
#127 = CARTESIAN_POINT ( 'NONE',  ( 0.0000000000000000000, 0.0000000000000000000, 0.0000000000000000000 ) ) ;
#128 = FACE_OUTER_BOUND ( 'NONE', #26, .T. ) ;
#129 = PERSON_AND_ORGANIZATION_ROLE ( 'classification_officer' ) ;
#130 = CC_DESIGN_DATE_AND_TIME_ASSIGNMENT ( #262, #190, ( #186 ) ) ;
#131 = ORIENTED_EDGE ( 'NONE', *, *, #72, .F. ) ;
#132 = CIRCLE ( 'NONE', #61, 0.1900000000000000300 ) ;
#133 = AXIS2_PLACEMENT_3D ( 'NONE', #207, #184, #103 ) ;
#134 = VERTEX_POINT ( 'NONE', #62 ) ;
#135 = ORIENTED_EDGE ( 'NONE', *, *, #197, .F. ) ;
#136 = CIRCLE ( 'NONE', #205, 0.3109999999999997211 ) ;
#137 = APPLICATION_CONTEXT ( 'configuration controlled 3d designs of mechanical parts and assemblies' ) ;
#138 = AXIS2_PLACEMENT_3D ( 'NONE', #224, #268, #159 ) ;
#139 = EDGE_LOOP ( 'NONE', ( #114 ) ) ;
#140 = ORIENTED_EDGE ( 'NONE', *, *, #14, .T. ) ;
#141 = FACE_OUTER_BOUND ( 'NONE', #247, .T. ) ;
#142 = DIRECTION ( 'NONE',  ( 3.491481338843133355E-15, -1.224646799147353207E-16, 1.000000000000000000 ) ) ;
#143 = DIRECTION ( 'NONE',  ( -6.192700785811060846E-31, -1.000000000000000000, -1.743090309462229462E-16 ) ) ;
#144 = EDGE_LOOP ( 'NONE', ( #161 ) ) ;
#145 = ADVANCED_FACE ( 'NONE', ( #187, #19 ), #33, .T. ) ;
#146 = DIRECTION ( 'NONE',  ( -3.491481338843133355E-15, 1.224646799147353207E-16, -1.000000000000000000 ) ) ;
#147 = CARTESIAN_POINT ( 'NONE',  ( 1.274390688677743675E-14, -4.469960816887839416E-16, 3.649999999999999911 ) ) ;
#148 = FACE_OUTER_BOUND ( 'NONE', #16, .T. ) ;
#149 = APPROVAL_ROLE ( '' ) ;
#150 = CC_DESIGN_APPROVAL ( #265, ( #102 ) ) ;
#151 = DIRECTION ( 'NONE',  ( 4.275831445896958607E-31, 1.000000000000000000, 1.224646799147352961E-16 ) ) ;
#152 = ADVANCED_FACE ( 'NONE', ( #208, #88 ), #252, .T. ) ;
#153 = CARTESIAN_POINT ( 'NONE',  ( 1.047444401652940007E-13, -3.673940397442059178E-15, 30.00000000000000000 ) ) ;
#154 = EDGE_LOOP ( 'NONE', ( #243 ) ) ;
#155 = ADVANCED_FACE ( 'NONE', ( #37, #15 ), #23, .T. ) ;
#156 = PERSON_AND_ORGANIZATION ( #119, #76 ) ;
#157 = EDGE_LOOP ( 'NONE', ( #166 ) ) ;
#158 = PERSON_AND_ORGANIZATION ( #119, #76 ) ;
#159 = DIRECTION ( 'NONE',  ( 1.000000000000000000, 0.0000000000000000000, 0.0000000000000000000 ) ) ;
#160 = ORIENTED_EDGE ( 'NONE', *, *, #93, .T. ) ;
#161 = ORIENTED_EDGE ( 'NONE', *, *, #72, .T. ) ;
#162 = LOCAL_TIME ( 11, 16, 23.00000000000000000, #47 ) ;
#163 = CC_DESIGN_PERSON_AND_ORGANIZATION_ASSIGNMENT ( #158, #227, ( #122 ) ) ;
#164 = LOCAL_TIME ( 11, 16, 23.00000000000000000, #110 ) ;
#165 = DIRECTION ( 'NONE',  ( 0.0000000000000000000, 1.000000000000000000, 0.0000000000000000000 ) ) ;
#166 = ORIENTED_EDGE ( 'NONE', *, *, #197, .T. ) ;
#167 = DIRECTION ( 'NONE',  ( -3.491481338843133355E-15, 1.224646799147353207E-16, -1.000000000000000000 ) ) ;
#168 = DIRECTION ( 'NONE',  ( -3.491481338843133355E-15, 1.224646799147353207E-16, -1.000000000000000000 ) ) ;
#169 = FACE_OUTER_BOUND ( 'NONE', #139, .T. ) ;
#170 = DIRECTION ( 'NONE',  ( 3.491481338843133355E-15, -1.224646799147353207E-16, 1.000000000000000000 ) ) ;
#171 = DATE_AND_TIME ( #86, #212 ) ;
#172 = CARTESIAN_POINT ( 'NONE',  ( 0.0000000000000000000, 0.0000000000000000000, 0.0000000000000000000 ) ) ;
#173 = APPROVAL_DATE_TIME ( #171, #78 ) ;
#174 = APPROVAL ( #223, 'UNSPECIFIED' ) ;
#175 =( GEOMETRIC_REPRESENTATION_CONTEXT ( 3 ) GLOBAL_UNCERTAINTY_ASSIGNED_CONTEXT ( ( #253 ) ) GLOBAL_UNIT_ASSIGNED_CONTEXT ( ( #64, #42, #218 ) ) REPRESENTATION_CONTEXT ( 'NONE', 'WORKASPACE' ) );
#176 = PLANE ( 'NONE',  #217 ) ;
#177 = EDGE_LOOP ( 'NONE', ( #202 ) ) ;
#178 = PERSON_AND_ORGANIZATION ( #119, #76 ) ;
#179 = DIRECTION ( 'NONE',  ( 0.0000000000000000000, 1.000000000000000000, 0.0000000000000000000 ) ) ;
#180 = CC_DESIGN_PERSON_AND_ORGANIZATION_ASSIGNMENT ( #98, #225, ( #102 ) ) ;
#181 = PRODUCT_DEFINITION_SHAPE ( 'NONE', 'NONE',  #102 ) ;
#182 = ADVANCED_FACE ( 'NONE', ( #84, #169 ), #39, .T. ) ;
#183 = CIRCLE ( 'NONE', #234, 0.6000000000000000888 ) ;
#184 = DIRECTION ( 'NONE',  ( 3.491481338843133355E-15, -1.224646799147353207E-16, 1.000000000000000000 ) ) ;
#185 = CARTESIAN_POINT ( 'NONE',  ( 1.117274028429802674E-14, -3.918869757271530460E-16, 3.200000000000000178 ) ) ;
#186 = SECURITY_CLASSIFICATION ( '', '', #261 ) ;
#187 = FACE_OUTER_BOUND ( 'NONE', #241, .T. ) ;
#188 = CC_DESIGN_PERSON_AND_ORGANIZATION_ASSIGNMENT ( #264, #95, ( #94 ) ) ;
#189 = DIRECTION ( 'NONE',  ( 4.275831445896958607E-31, 1.000000000000000000, 1.224646799147353454E-16 ) ) ;
#190 = DATE_TIME_ROLE ( 'classification_date' ) ;
#191 = CARTESIAN_POINT ( 'NONE',  ( 1.117274028429802674E-14, 2.332126462039180082E-33, 3.200000000000000178 ) ) ;
#192 = AXIS2_PLACEMENT_3D ( 'NONE', #153, #82, #276 ) ;
#193 = EDGE_LOOP ( 'NONE', ( #45 ) ) ;
#194 = CIRCLE ( 'NONE', #246, 0.7499999999999998890 ) ;
#195 = EDGE_LOOP ( 'NONE', ( #44 ) ) ;
#196 = DIRECTION ( 'NONE',  ( -3.491481338843133355E-15, 1.224646799147353207E-16, -1.000000000000000000 ) ) ;
#197 = EDGE_CURVE ( 'NONE', #1, #1, #34, .T. ) ;
#198 = EDGE_LOOP ( 'NONE', ( #135 ) ) ;
#199 = CARTESIAN_POINT ( 'NONE',  ( 1.047444401652940007E-13, 4.499279347985518085E-33, 30.00000000000000000 ) ) ;
#200 = CLOSED_SHELL ( 'NONE', ( #203, #277, #182, #116 ) ) ;
#201 = CIRCLE ( 'NONE', #250, 0.3280370868554645103 ) ;
#202 = ORIENTED_EDGE ( 'NONE', *, *, #274, .F. ) ;
#203 = ADVANCED_FACE ( 'NONE', ( #237 ), #41, .F. ) ;
#204 = DATE_AND_TIME ( #120, #12 ) ;
#205 = AXIS2_PLACEMENT_3D ( 'NONE', #147, #167, #4 ) ;
#206 = FACE_OUTER_BOUND ( 'NONE', #157, .T. ) ;
#207 = CARTESIAN_POINT ( 'NONE',  ( -9.976839331049491771E-32, 3.499404168783420903E-33, -2.857480353698586730E-17 ) ) ;
#208 = FACE_OUTER_BOUND ( 'NONE', #245, .T. ) ;
#209 = CARTESIAN_POINT ( 'NONE',  ( 1.042207179644675275E-13, 0.7499999999999962252, 29.84999999999999787 ) ) ;
#210 = DIRECTION ( 'NONE',  ( 3.491481338843133355E-15, -1.224646799147353207E-16, 1.000000000000000000 ) ) ;
#211 = PERSON_AND_ORGANIZATION ( #119, #76 ) ;
#212 = LOCAL_TIME ( 11, 16, 23.00000000000000000, #3 ) ;
#213 = ADVANCED_FACE ( 'NONE', ( #226, #99 ), #273, .T. ) ;
#214 = DIRECTION ( 'NONE',  ( -3.491481338843133355E-15, 1.224646799147353207E-16, -1.000000000000000000 ) ) ;
#215 = CARTESIAN_POINT ( 'NONE',  ( 1.117274028429802674E-14, -3.918869757271530460E-16, 3.200000000000000178 ) ) ;
#216 = APPROVAL_STATUS ( 'not_yet_approved' ) ;
#217 = AXIS2_PLACEMENT_3D ( 'NONE', #199, #196, #244 ) ;
#218 =( NAMED_UNIT ( * ) SI_UNIT ( $, .STERADIAN. ) SOLID_ANGLE_UNIT ( ) );
#219 = ORIENTED_EDGE ( 'NONE', *, *, #53, .F. ) ;
#220 = CIRCLE ( 'NONE', #100, 0.7499999999999970024 ) ;
#221 = APPLICATION_PROTOCOL_DEFINITION ( 'international standard', 'config_control_design', 1994, #115 ) ;
#222 = ORIENTED_EDGE ( 'NONE', *, *, #83, .F. ) ;
#223 = APPROVAL_STATUS ( 'not_yet_approved' ) ;
#224 = CARTESIAN_POINT ( 'NONE',  ( 0.0000000000000000000, 0.0000000000000000000, 0.0000000000000000000 ) ) ;
#225 = PERSON_AND_ORGANIZATION_ROLE ( 'creator' ) ;
#226 = FACE_OUTER_BOUND ( 'NONE', #177, .T. ) ;
#227 = PERSON_AND_ORGANIZATION_ROLE ( 'design_supplier' ) ;
#228 = AXIS2_PLACEMENT_3D ( 'NONE', #172, #231, #257 ) ;
#229 = CONICAL_SURFACE ( 'NONE', #24, 0.3109999999999993325, 0.2617993877991426910 ) ;
#230 = DIRECTION ( 'NONE',  ( -3.491481338843133355E-15, 1.224646799147353207E-16, -1.000000000000000000 ) ) ;
#231 = DIRECTION ( 'NONE',  ( -3.491481338843133355E-15, 1.224646799147353207E-16, -1.000000000000000000 ) ) ;
#232 = CARTESIAN_POINT ( 'NONE',  ( 1.869407735040266925E-14, -6.556999671024801621E-16, 5.354196553316466378 ) ) ;
#233 = DIRECTION ( 'NONE',  ( -4.275831445896958607E-31, -1.000000000000000000, -1.224646799147353207E-16 ) ) ;
#234 = AXIS2_PLACEMENT_3D ( 'NONE', #108, #146, #40 ) ;
#235 = APPROVAL_PERSON_ORGANIZATION ( #156, #265, #239 ) ;
#236 = CARTESIAN_POINT ( 'NONE',  ( 1.576676675779215918E-15, -5.530237331650984945E-17, 0.4515781477158436474 ) ) ;
#237 = FACE_OUTER_BOUND ( 'NONE', #90, .T. ) ;
#238 = EDGE_LOOP ( 'NONE', ( #140 ) ) ;
#239 = APPROVAL_ROLE ( '' ) ;
#240 = EDGE_LOOP ( 'NONE', ( #67 ) ) ;
#241 = EDGE_LOOP ( 'NONE', ( #131 ) ) ;
#242 = COORDINATED_UNIVERSAL_TIME_OFFSET ( 1, 0, .AHEAD. ) ;
#243 = ORIENTED_EDGE ( 'NONE', *, *, #97, .T. ) ;
#244 = DIRECTION ( 'NONE',  ( 4.275831445896958607E-31, 1.000000000000000000, 1.224646799147353207E-16 ) ) ;
#245 = EDGE_LOOP ( 'NONE', ( #269 ) ) ;
#246 = AXIS2_PLACEMENT_3D ( 'NONE', #124, #55, #255 ) ;
#247 = EDGE_LOOP ( 'NONE', ( #219 ) ) ;
#248 = CALENDAR_DATE ( 2021, 16, 12 ) ;
#249 = DATE_AND_TIME ( #74, #272 ) ;
#250 = AXIS2_PLACEMENT_3D ( 'NONE', #50, #8, #179 ) ;
#251 = AXIS2_PLACEMENT_3D ( 'NONE', #236, #259, #65 ) ;
#252 = CYLINDRICAL_SURFACE ( 'NONE', #228, 0.7499999999999984457 ) ;
#253 = UNCERTAINTY_MEASURE_WITH_UNIT (LENGTH_MEASURE( 1.000000000000000082E-05 ), #64, 'distance_accuracy_value', 'NONE');
#254 = CARTESIAN_POINT ( 'NONE',  ( 1.869407735040266925E-14, 0.7499999999999963363, 5.354196553316466378 ) ) ;
#255 = DIRECTION ( 'NONE',  ( 0.0000000000000000000, 1.000000000000000000, 0.0000000000000000000 ) ) ;
#256 = CARTESIAN_POINT ( 'NONE',  ( 1.576676675779216115E-15, 0.3109999999999992770, 0.4515781477158437029 ) ) ;
#257 = DIRECTION ( 'NONE',  ( 4.275831445896958607E-31, 1.000000000000000000, 1.224646799147353454E-16 ) ) ;
#258 = SHAPE_DEFINITION_REPRESENTATION ( #181, #25 ) ;
#259 = DIRECTION ( 'NONE',  ( -3.491481338843133355E-15, 1.224646799147353207E-16, -1.000000000000000000 ) ) ;
#260 = PRODUCT_RELATED_PRODUCT_CATEGORY ( 'detail', '', ( #94 ) ) ;
#261 = SECURITY_CLASSIFICATION_LEVEL ( 'unclassified' ) ;
#262 = DATE_AND_TIME ( #283, #164 ) ;
#263 = CC_DESIGN_SECURITY_CLASSIFICATION ( #186, ( #122 ) ) ;
#264 = PERSON_AND_ORGANIZATION ( #119, #76 ) ;
#265 = APPROVAL ( #30, 'UNSPECIFIED' ) ;
#266 = PERSON_AND_ORGANIZATION_ROLE ( 'creator' ) ;
#267 = FACE_OUTER_BOUND ( 'NONE', #193, .T. ) ;
#268 = DIRECTION ( 'NONE',  ( 0.0000000000000000000, 0.0000000000000000000, 1.000000000000000000 ) ) ;
#269 = ORIENTED_EDGE ( 'NONE', *, *, #97, .F. ) ;
#270 = APPROVAL_DATE_TIME ( #249, #265 ) ;
#271 = AXIS2_PLACEMENT_3D ( 'NONE', #215, #85, #109 ) ;
#272 = LOCAL_TIME ( 11, 16, 23.00000000000000000, #242 ) ;
#273 = CYLINDRICAL_SURFACE ( 'NONE', #68, 0.3109999999999996656 ) ;
#274 = EDGE_CURVE ( 'NONE', #134, #134, #31, .T. ) ;
#275 = VERTEX_POINT ( 'NONE', #279 ) ;
#276 = DIRECTION ( 'NONE',  ( 0.0000000000000000000, 1.000000000000000000, 0.0000000000000000000 ) ) ;
#277 = ADVANCED_FACE ( 'NONE', ( #49, #206 ), #229, .T. ) ;
#278 = AXIS2_PLACEMENT_3D ( 'NONE', #127, #214, #151 ) ;
#279 = CARTESIAN_POINT ( 'NONE',  ( 1.047444401652940007E-13, 0.5999999999999963141, 30.00000000000000000 ) ) ;
#280 = CARTESIAN_POINT ( 'NONE',  ( 1.869407735040266925E-14, -6.556999671024801621E-16, 5.354196553316466378 ) ) ;
#281 = VERTEX_POINT ( 'NONE', #126 ) ;
#282 = DIRECTION ( 'NONE',  ( -4.275831445896958607E-31, -1.000000000000000000, -1.224646799147353207E-16 ) ) ;
#283 = CALENDAR_DATE ( 2021, 16, 12 ) ;
ENDSEC;
END-ISO-10303-21;
