ISO-10303-21;
HEADER;
FILE_DESCRIPTION (( 'STEP AP203' ),
    '1' );
FILE_NAME ('62330.step',
    '2021-12-16T11:55:56',
    ( '' ),
    ( '' ),
    'SwSTEP 2.0',
    'SolidWorks 2019',
    '' );
FILE_SCHEMA (( 'CONFIG_CONTROL_DESIGN' ));
ENDSEC;

DATA;
#1 = CC_DESIGN_APPROVAL ( #25, ( #216 ) ) ;
#2 = APPROVAL_PERSON_ORGANIZATION ( #235, #68, #210 ) ;
#3 = AXIS2_PLACEMENT_3D ( 'NONE', #194, #219, #224 ) ;
#4 = ADVANCED_BREP_SHAPE_REPRESENTATION ( '62330', ( #84, #274, #152 ), #130 ) ;
#5 = CARTESIAN_POINT ( 'NONE',  ( 1.222018468595096674E-14, 1.945938318003754198E-33, 3.500000000000000000 ) ) ;
#6 = CYLINDRICAL_SURFACE ( 'NONE', #45, 0.2594999999999998419 ) ;
#7 = CIRCLE ( 'NONE', #204, 0.6000000000000000888 ) ;
#8 = DIRECTION ( 'NONE',  ( -3.491481338843133355E-15, 1.224646799147353207E-16, -1.000000000000000000 ) ) ;
#9 = EDGE_CURVE ( 'NONE', #160, #160, #189, .T. ) ;
#10 = APPLICATION_CONTEXT ( 'configuration controlled 3d designs of mechanical parts and assemblies' ) ;
#11 = DIRECTION ( 'NONE',  ( -3.491481338843133355E-15, 1.224646799147353207E-16, -1.000000000000000000 ) ) ;
#12 = DIRECTION ( 'NONE',  ( 3.491481338843133355E-15, -1.224646799147353207E-16, 1.000000000000000000 ) ) ;
#13 = DIRECTION ( 'NONE',  ( 3.491481338843133355E-15, -1.224646799147353207E-16, 1.000000000000000000 ) ) ;
#14 = CC_DESIGN_APPROVAL ( #81, ( #259 ) ) ;
#15 = EDGE_LOOP ( 'NONE', ( #98 ) ) ;
#16 = EDGE_CURVE ( 'NONE', #229, #229, #61, .T. ) ;
#17 = EDGE_LOOP ( 'NONE', ( #238 ) ) ;
#18 = PERSON_AND_ORGANIZATION ( #107, #52 ) ;
#19 = ORIENTED_EDGE ( 'NONE', *, *, #258, .F. ) ;
#20 = ADVANCED_FACE ( 'NONE', ( #26 ), #244, .F. ) ;
#21 = APPROVAL_STATUS ( 'not_yet_approved' ) ;
#22 = DIRECTION ( 'NONE',  ( -4.275831445896958607E-31, -1.000000000000000000, -1.224646799147353207E-16 ) ) ;
#23 = APPLICATION_CONTEXT ( 'configuration controlled 3d designs of mechanical parts and assemblies' ) ;
#24 = DIRECTION ( 'NONE',  ( -3.491481338843133355E-15, 1.224646799147353207E-16, -1.000000000000000000 ) ) ;
#25 = APPROVAL ( #55, 'UNSPECIFIED' ) ;
#26 = FACE_OUTER_BOUND ( 'NONE', #60, .T. ) ;
#27 = FACE_BOUND ( 'NONE', #143, .T. ) ;
#28 = FACE_BOUND ( 'NONE', #215, .T. ) ;
#29 = AXIS2_PLACEMENT_3D ( 'NONE', #260, #46, #264 ) ;
#30 = CARTESIAN_POINT ( 'NONE',  ( 1.431507348925684360E-14, 0.2594999999999996199, 4.099999999999999645 ) ) ;
#31 = FACE_OUTER_BOUND ( 'NONE', #38, .T. ) ;
#32 = VERTEX_POINT ( 'NONE', #72 ) ;
#33 = DIRECTION ( 'NONE',  ( 4.275831445896958607E-31, 1.000000000000000000, 1.224646799147353454E-16 ) ) ;
#34 = VERTEX_POINT ( 'NONE', #50 ) ;
#35 = APPROVAL_DATE_TIME ( #122, #68 ) ;
#36 = ADVANCED_FACE ( 'NONE', ( #155, #42 ), #6, .T. ) ;
#37 = APPLICATION_PROTOCOL_DEFINITION ( 'international standard', 'config_control_design', 1994, #10 ) ;
#38 = EDGE_LOOP ( 'NONE', ( #19 ) ) ;
#39 = EDGE_LOOP ( 'NONE', ( #240 ) ) ;
#40 = EDGE_LOOP ( 'NONE', ( #278 ) ) ;
#41 = DIRECTION ( 'NONE',  ( -3.491481338843133355E-15, 1.224646799147353207E-16, -1.000000000000000000 ) ) ;
#42 = FACE_OUTER_BOUND ( 'NONE', #59, .T. ) ;
#43 = EDGE_CURVE ( 'NONE', #90, #90, #100, .T. ) ;
#44 = AXIS2_PLACEMENT_3D ( 'NONE', #227, #12, #205 ) ;
#45 = AXIS2_PLACEMENT_3D ( 'NONE', #63, #24, #129 ) ;
#46 = DIRECTION ( 'NONE',  ( 3.491481338843133355E-15, -1.224646799147353207E-16, 1.000000000000000000 ) ) ;
#47 = CARTESIAN_POINT ( 'NONE',  ( 1.047444401652940007E-13, -3.673940397442059178E-15, 30.00000000000000000 ) ) ;
#48 = DIRECTION ( 'NONE',  ( 4.275831445896959482E-31, 1.000000000000000000, 1.224646799147353207E-16 ) ) ;
#49 = CONICAL_SURFACE ( 'NONE', #217, 0.6000000000000000888, 0.7853981633974450594 ) ;
#50 = CARTESIAN_POINT ( 'NONE',  ( 1.047444401652940007E-13, 0.5999999999999963141, 30.00000000000000000 ) ) ;
#51 = DIRECTION ( 'NONE',  ( 4.275831445896958607E-31, 1.000000000000000000, 1.224646799147353207E-16 ) ) ;
#52 = ORGANIZATION ( 'UNSPECIFIED', 'UNSPECIFIED', '' ) ;
#53 = DIRECTION ( 'NONE',  ( -3.491481338843133355E-15, 1.224646799147353207E-16, -1.000000000000000000 ) ) ;
#54 = PERSON_AND_ORGANIZATION ( #107, #52 ) ;
#55 = APPROVAL_STATUS ( 'not_yet_approved' ) ;
#56 = EDGE_LOOP ( 'NONE', ( #234 ) ) ;
#57 = AXIS2_PLACEMENT_3D ( 'NONE', #249, #11, #89 ) ;
#58 = PERSON_AND_ORGANIZATION_ROLE ( 'creator' ) ;
#59 = EDGE_LOOP ( 'NONE', ( #257 ) ) ;
#60 = EDGE_LOOP ( 'NONE', ( #191 ) ) ;
#61 = CIRCLE ( 'NONE', #195, 0.1600000000000000588 ) ;
#62 = FACE_OUTER_BOUND ( 'NONE', #40, .T. ) ;
#63 = CARTESIAN_POINT ( 'NONE',  ( 0.0000000000000000000, 0.0000000000000000000, 0.0000000000000000000 ) ) ;
#64 = DIRECTION ( 'NONE',  ( -4.275831445896958607E-31, -1.000000000000000000, -1.224646799147353207E-16 ) ) ;
#65 = DIRECTION ( 'NONE',  ( -3.491481338843133355E-15, 1.224646799147353207E-16, -1.000000000000000000 ) ) ;
#66 = AXIS2_PLACEMENT_3D ( 'NONE', #136, #53, #51 ) ;
#67 = CARTESIAN_POINT ( 'NONE',  ( 1.476690442231316282E-14, 0.2765370868554646311, 4.229409522551257794 ) ) ;
#68 = APPROVAL ( #96, 'UNSPECIFIED' ) ;
#69 = CARTESIAN_POINT ( 'NONE',  ( 0.0000000000000000000, 0.0000000000000000000, 0.0000000000000000000 ) ) ;
#70 = DIRECTION ( 'NONE',  ( 0.0000000000000000000, 1.000000000000000000, 0.0000000000000000000 ) ) ;
#71 = ADVANCED_FACE ( 'NONE', ( #197 ), #83, .F. ) ;
#72 = CARTESIAN_POINT ( 'NONE',  ( 1.222018468595096674E-14, 0.2594999999999996199, 3.500000000000000000 ) ) ;
#73 = AXIS2_PLACEMENT_3D ( 'NONE', #170, #8, #172 ) ;
#74 = CALENDAR_DATE ( 2021, 16, 12 ) ;
#75 = EDGE_LOOP ( 'NONE', ( #211 ) ) ;
#76 = DIRECTION ( 'NONE',  ( 0.0000000000000000000, 0.0000000000000000000, 1.000000000000000000 ) ) ;
#77 = ORIENTED_EDGE ( 'NONE', *, *, #144, .T. ) ;
#78 = CALENDAR_DATE ( 2021, 16, 12 ) ;
#79 = COORDINATED_UNIVERSAL_TIME_OFFSET ( 1, 0, .AHEAD. ) ;
#80 = CARTESIAN_POINT ( 'NONE',  ( -4.475410530456185589E-32, 1.569762702157111194E-33, -1.281808520832325760E-17 ) ) ;
#81 = APPROVAL ( #21, 'UNSPECIFIED' ) ;
#82 = PLANE ( 'NONE',  #29 ) ;
#83 = PLANE ( 'NONE',  #73 ) ;
#84 = MANIFOLD_SOLID_BREP ( 'Corps-Déplacer/Copier1[1]', #239 ) ;
#85 = FACE_OUTER_BOUND ( 'NONE', #101, .T. ) ;
#86 = CARTESIAN_POINT ( 'NONE',  ( 1.042207179644675275E-13, -3.655570695454848748E-15, 29.84999999999999787 ) ) ;
#87 = DIRECTION ( 'NONE',  ( 7.421695354093403803E-31, 1.000000000000000000, 2.089021526947024671E-16 ) ) ;
#88 = EDGE_CURVE ( 'NONE', #133, #133, #151, .T. ) ;
#89 = DIRECTION ( 'NONE',  ( 0.0000000000000000000, 1.000000000000000000, 0.0000000000000000000 ) ) ;
#90 = VERTEX_POINT ( 'NONE', #180 ) ;
#91 = CYLINDRICAL_SURFACE ( 'NONE', #135, 0.2595000000000000639 ) ;
#92 = FACE_OUTER_BOUND ( 'NONE', #95, .T. ) ;
#93 = PERSON_AND_ORGANIZATION_ROLE ( 'creator' ) ;
#94 = CIRCLE ( 'NONE', #145, 0.2595000000000000639 ) ;
#95 = EDGE_LOOP ( 'NONE', ( #208 ) ) ;
#96 = APPROVAL_STATUS ( 'not_yet_approved' ) ;
#97 = CC_DESIGN_PERSON_AND_ORGANIZATION_ASSIGNMENT ( #166, #58, ( #259 ) ) ;
#98 = ORIENTED_EDGE ( 'NONE', *, *, #206, .F. ) ;
#99 = DIRECTION ( 'NONE',  ( 1.000000000000000000, 0.0000000000000000000, 0.0000000000000000000 ) ) ;
#100 = CIRCLE ( 'NONE', #263, 0.7499999999999998890 ) ;
#101 = EDGE_LOOP ( 'NONE', ( #165 ) ) ;
#102 = DATE_AND_TIME ( #78, #218 ) ;
#103 = CARTESIAN_POINT ( 'NONE',  ( 1.476690442231316282E-14, -5.179532834075732951E-16, 4.229409522551257794 ) ) ;
#104 = DIRECTION ( 'NONE',  ( 0.0000000000000000000, 1.000000000000000000, 0.0000000000000000000 ) ) ;
#105 = AXIS2_PLACEMENT_3D ( 'NONE', #103, #193, #283 ) ;
#106 = DIRECTION ( 'NONE',  ( -3.491481338843133355E-15, 1.224646799147353207E-16, -1.000000000000000000 ) ) ;
#107 = PERSON ( 'UNSPECIFIED', 'UNSPECIFIED', 'UNSPECIFIED', ('UNSPECIFIED'), ('UNSPECIFIED'), ('UNSPECIFIED') ) ;
#108 = FACE_OUTER_BOUND ( 'NONE', #17, .T. ) ;
#109 = AXIS2_PLACEMENT_3D ( 'NONE', #5, #262, #22 ) ;
#110 = CARTESIAN_POINT ( 'NONE',  ( 1.047444401652940007E-13, -3.673940397442059178E-15, 30.00000000000000000 ) ) ;
#111 = FACE_OUTER_BOUND ( 'NONE', #75, .T. ) ;
#112 = FACE_OUTER_BOUND ( 'NONE', #126, .T. ) ;
#113 = CC_DESIGN_PERSON_AND_ORGANIZATION_ASSIGNMENT ( #254, #187, ( #259 ) ) ;
#114 = DIRECTION ( 'NONE',  ( -3.491481338843133355E-15, 1.224646799147353207E-16, -1.000000000000000000 ) ) ;
#115 = APPLICATION_PROTOCOL_DEFINITION ( 'international standard', 'config_control_design', 1994, #23 ) ;
#116 = LOCAL_TIME ( 12, 55, 56.00000000000000000, #275 ) ;
#117 = APPROVAL_DATE_TIME ( #162, #25 ) ;
#118 = AXIS2_PLACEMENT_3D ( 'NONE', #174, #153, #64 ) ;
#119 = EDGE_LOOP ( 'NONE', ( #123 ) ) ;
#120 = PRODUCT_DEFINITION ( 'UNKNOWN', '', #259, #127 ) ;
#121 = COORDINATED_UNIVERSAL_TIME_OFFSET ( 1, 0, .AHEAD. ) ;
#122 = DATE_AND_TIME ( #188, #246 ) ;
#123 = ORIENTED_EDGE ( 'NONE', *, *, #9, .F. ) ;
#124 = PERSON_AND_ORGANIZATION ( #107, #52 ) ;
#125 = CIRCLE ( 'NONE', #183, 0.2594999999999996754 ) ;
#126 = EDGE_LOOP ( 'NONE', ( #276 ) ) ;
#127 = DESIGN_CONTEXT ( 'detailed design', #23, 'design' ) ;
#128 = PLANE ( 'NONE',  #109 ) ;
#129 = DIRECTION ( 'NONE',  ( 4.275831445896959482E-31, 1.000000000000000000, 1.224646799147353207E-16 ) ) ;
#130 =( GEOMETRIC_REPRESENTATION_CONTEXT ( 3 ) GLOBAL_UNCERTAINTY_ASSIGNED_CONTEXT ( ( #149 ) ) GLOBAL_UNIT_ASSIGNED_CONTEXT ( ( #203, #250, #282 ) ) REPRESENTATION_CONTEXT ( 'NONE', 'WORKASPACE' ) );
#131 = FACE_OUTER_BOUND ( 'NONE', #56, .T. ) ;
#132 = DIRECTION ( 'NONE',  ( -3.491481338843133355E-15, 1.224646799147353207E-16, -1.000000000000000000 ) ) ;
#133 = VERTEX_POINT ( 'NONE', #230 ) ;
#134 = ADVANCED_FACE ( 'NONE', ( #85 ), #128, .T. ) ;
#135 = AXIS2_PLACEMENT_3D ( 'NONE', #69, #114, #48 ) ;
#136 = CARTESIAN_POINT ( 'NONE',  ( 1.431507348925684360E-14, -5.421010862427522170E-16, 4.099999999999999645 ) ) ;
#137 = CARTESIAN_POINT ( 'NONE',  ( 2.365919782978951696E-32, 0.1600000000000000588, 6.776263578034402713E-18 ) ) ;
#138 = CARTESIAN_POINT ( 'NONE',  ( 1.296523382149028087E-15, 0.2594999999999996199, 0.3713390553531120686 ) ) ;
#139 = LOCAL_TIME ( 12, 55, 56.00000000000000000, #79 ) ;
#140 = AXIS2_PLACEMENT_3D ( 'NONE', #243, #261, #104 ) ;
#141 = VERTEX_POINT ( 'NONE', #138 ) ;
#142 = PERSON_AND_ORGANIZATION_ROLE ( 'design_owner' ) ;
#143 = EDGE_LOOP ( 'NONE', ( #281 ) ) ;
#144 = EDGE_CURVE ( 'NONE', #245, #245, #169, .T. ) ;
#145 = AXIS2_PLACEMENT_3D ( 'NONE', #247, #272, #70 ) ;
#146 = EDGE_LOOP ( 'NONE', ( #148 ) ) ;
#147 = CALENDAR_DATE ( 2021, 16, 12 ) ;
#148 = ORIENTED_EDGE ( 'NONE', *, *, #171, .F. ) ;
#149 = UNCERTAINTY_MEASURE_WITH_UNIT (LENGTH_MEASURE( 1.000000000000000082E-05 ), #203, 'distance_accuracy_value', 'NONE');
#150 = EDGE_LOOP ( 'NONE', ( #213 ) ) ;
#151 = CIRCLE ( 'NONE', #3, 0.2595000000000000639 ) ;
#152 = AXIS2_PLACEMENT_3D ( 'NONE', #212, #76, #99 ) ;
#153 = DIRECTION ( 'NONE',  ( 3.491481338843133355E-15, -1.224646799147353207E-16, 1.000000000000000000 ) ) ;
#154 = ADVANCED_FACE ( 'NONE', ( #62 ), #82, .F. ) ;
#155 = FACE_OUTER_BOUND ( 'NONE', #146, .T. ) ;
#156 = ADVANCED_FACE ( 'NONE', ( #131, #27 ), #49, .T. ) ;
#157 = FACE_OUTER_BOUND ( 'NONE', #150, .T. ) ;
#158 = CONICAL_SURFACE ( 'NONE', #221, 0.7499999999999971134, 0.2617993877991428575 ) ;
#159 = CARTESIAN_POINT ( 'NONE',  ( 0.0000000000000000000, 0.0000000000000000000, 0.0000000000000000000 ) ) ;
#160 = VERTEX_POINT ( 'NONE', #67 ) ;
#161 = TOROIDAL_SURFACE ( 'NONE', #66, 0.7595000000000001750, 0.5000000000000000000 ) ;
#162 = DATE_AND_TIME ( #147, #277 ) ;
#163 = DATE_AND_TIME ( #74, #139 ) ;
#164 = ORIENTED_EDGE ( 'NONE', *, *, #16, .F. ) ;
#165 = ORIENTED_EDGE ( 'NONE', *, *, #248, .F. ) ;
#166 = PERSON_AND_ORGANIZATION ( #107, #52 ) ;
#167 = ADVANCED_FACE ( 'NONE', ( #28, #108 ), #178, .T. ) ;
#168 = DATE_TIME_ROLE ( 'classification_date' ) ;
#169 = CIRCLE ( 'NONE', #140, 0.7499999999999971134 ) ;
#170 = CARTESIAN_POINT ( 'NONE',  ( 1.047444401652940007E-13, 4.499279347985518085E-33, 30.00000000000000000 ) ) ;
#171 = EDGE_CURVE ( 'NONE', #141, #141, #125, .T. ) ;
#172 = DIRECTION ( 'NONE',  ( 4.275831445896958607E-31, 1.000000000000000000, 1.224646799147353207E-16 ) ) ;
#173 = CC_DESIGN_DATE_AND_TIME_ASSIGNMENT ( #163, #168, ( #216 ) ) ;
#174 = CARTESIAN_POINT ( 'NONE',  ( -2.237705265228092795E-32, 7.848813510785555969E-34, -6.409042604161628800E-18 ) ) ;
#175 = DIRECTION ( 'NONE',  ( 0.0000000000000000000, 1.000000000000000000, 0.0000000000000000000 ) ) ;
#176 = DIRECTION ( 'NONE',  ( 0.0000000000000000000, -1.000000000000000000, 0.0000000000000000000 ) ) ;
#177 = CC_DESIGN_SECURITY_CLASSIFICATION ( #216, ( #259 ) ) ;
#178 = CONICAL_SURFACE ( 'NONE', #44, 0.2594999999999996754, 0.2617993877991426355 ) ;
#179 = DIRECTION ( 'NONE',  ( -3.491481338843133355E-15, 1.224646799147353207E-16, -1.000000000000000000 ) ) ;
#180 = CARTESIAN_POINT ( 'NONE',  ( 1.042207179644675275E-13, 0.7499999999999962252, 29.84999999999999787 ) ) ;
#181 = CYLINDRICAL_SURFACE ( 'NONE', #268, 0.7499999999999984457 ) ;
#182 = CC_DESIGN_APPROVAL ( #68, ( #120 ) ) ;
#183 = AXIS2_PLACEMENT_3D ( 'NONE', #271, #65, #87 ) ;
#184 = CC_DESIGN_PERSON_AND_ORGANIZATION_ASSIGNMENT ( #280, #273, ( #216 ) ) ;
#185 = SECURITY_CLASSIFICATION_LEVEL ( 'unclassified' ) ;
#186 = EDGE_LOOP ( 'NONE', ( #77 ) ) ;
#187 = PERSON_AND_ORGANIZATION_ROLE ( 'design_supplier' ) ;
#188 = CALENDAR_DATE ( 2021, 16, 12 ) ;
#189 = CIRCLE ( 'NONE', #105, 0.2765370868554651862 ) ;
#190 = MECHANICAL_CONTEXT ( 'NONE', #10, 'mechanical' ) ;
#191 = ORIENTED_EDGE ( 'NONE', *, *, #16, .T. ) ;
#192 = CALENDAR_DATE ( 2021, 16, 12 ) ;
#193 = DIRECTION ( 'NONE',  ( -3.491481338843133355E-15, 1.224646799147353207E-16, -1.000000000000000000 ) ) ;
#194 = CARTESIAN_POINT ( 'NONE',  ( 1.222018468595096674E-14, -4.286263797015736595E-16, 3.500000000000000000 ) ) ;
#195 = AXIS2_PLACEMENT_3D ( 'NONE', #80, #41, #200 ) ;
#196 = DIRECTION ( 'NONE',  ( 0.0000000000000000000, 1.000000000000000000, 0.0000000000000000000 ) ) ;
#197 = FACE_OUTER_BOUND ( 'NONE', #15, .T. ) ;
#198 = CC_DESIGN_PERSON_AND_ORGANIZATION_ASSIGNMENT ( #232, #93, ( #120 ) ) ;
#199 = APPROVAL_PERSON_ORGANIZATION ( #54, #25, #233 ) ;
#200 = DIRECTION ( 'NONE',  ( 4.275831445896959482E-31, 1.000000000000000000, 1.224646799147353207E-16 ) ) ;
#201 = FACE_OUTER_BOUND ( 'NONE', #39, .T. ) ;
#202 = APPROVAL_PERSON_ORGANIZATION ( #124, #81, #255 ) ;
#203 =( LENGTH_UNIT ( ) NAMED_UNIT ( * ) SI_UNIT ( .MILLI., .METRE. ) );
#204 = AXIS2_PLACEMENT_3D ( 'NONE', #110, #179, #175 ) ;
#205 = DIRECTION ( 'NONE',  ( -7.421695354093403803E-31, -1.000000000000000000, -2.089021526947024671E-16 ) ) ;
#206 = EDGE_CURVE ( 'NONE', #34, #34, #7, .T. ) ;
#207 = APPROVAL_DATE_TIME ( #237, #81 ) ;
#208 = ORIENTED_EDGE ( 'NONE', *, *, #144, .F. ) ;
#209 = CIRCLE ( 'NONE', #57, 0.2595000000000001195 ) ;
#210 = APPROVAL_ROLE ( '' ) ;
#211 = ORIENTED_EDGE ( 'NONE', *, *, #9, .T. ) ;
#212 = CARTESIAN_POINT ( 'NONE',  ( 0.0000000000000000000, 0.0000000000000000000, 0.0000000000000000000 ) ) ;
#213 = ORIENTED_EDGE ( 'NONE', *, *, #43, .T. ) ;
#214 = SHAPE_DEFINITION_REPRESENTATION ( #222, #4 ) ;
#215 = EDGE_LOOP ( 'NONE', ( #164 ) ) ;
#216 = SECURITY_CLASSIFICATION ( '', '', #185 ) ;
#217 = AXIS2_PLACEMENT_3D ( 'NONE', #47, #132, #225 ) ;
#218 = LOCAL_TIME ( 12, 55, 56.00000000000000000, #253 ) ;
#219 = DIRECTION ( 'NONE',  ( -3.491481338843133355E-15, 1.224646799147353207E-16, -1.000000000000000000 ) ) ;
#220 = CC_DESIGN_DATE_AND_TIME_ASSIGNMENT ( #102, #236, ( #120 ) ) ;
#221 = AXIS2_PLACEMENT_3D ( 'NONE', #266, #13, #176 ) ;
#222 = PRODUCT_DEFINITION_SHAPE ( 'NONE', 'NONE',  #120 ) ;
#223 = ADVANCED_FACE ( 'NONE', ( #31, #111 ), #161, .F. ) ;
#224 = DIRECTION ( 'NONE',  ( 0.0000000000000000000, 1.000000000000000000, 0.0000000000000000000 ) ) ;
#225 = DIRECTION ( 'NONE',  ( 0.0000000000000000000, 1.000000000000000000, 0.0000000000000000000 ) ) ;
#226 = DIRECTION ( 'NONE',  ( -3.491481338843133355E-15, 1.224646799147353207E-16, -1.000000000000000000 ) ) ;
#227 = CARTESIAN_POINT ( 'NONE',  ( 1.296523382149027890E-15, -4.547591855365904395E-17, 0.3713390553531120131 ) ) ;
#228 = ADVANCED_FACE ( 'NONE', ( #92, #157 ), #181, .T. ) ;
#229 = VERTEX_POINT ( 'NONE', #137 ) ;
#230 = CARTESIAN_POINT ( 'NONE',  ( 1.222018468595096674E-14, 0.2594999999999996199, 3.500000000000000000 ) ) ;
#231 = VERTEX_POINT ( 'NONE', #30 ) ;
#232 = PERSON_AND_ORGANIZATION ( #107, #52 ) ;
#233 = APPROVAL_ROLE ( '' ) ;
#234 = ORIENTED_EDGE ( 'NONE', *, *, #43, .F. ) ;
#235 = PERSON_AND_ORGANIZATION ( #107, #52 ) ;
#236 = DATE_TIME_ROLE ( 'creation_date' ) ;
#237 = DATE_AND_TIME ( #192, #116 ) ;
#238 = ORIENTED_EDGE ( 'NONE', *, *, #171, .T. ) ;
#239 = CLOSED_SHELL ( 'NONE', ( #154, #251, #223, #270, #228, #156, #71 ) ) ;
#240 = ORIENTED_EDGE ( 'NONE', *, *, #88, .F. ) ;
#241 = CC_DESIGN_PERSON_AND_ORGANIZATION_ASSIGNMENT ( #18, #142, ( #242 ) ) ;
#242 = PRODUCT ( '62330', '62330', '', ( #190 ) ) ;
#243 = CARTESIAN_POINT ( 'NONE',  ( 2.093630881901951119E-14, -7.343468600541957939E-16, 5.996397169906267699 ) ) ;
#244 = PLANE ( 'NONE',  #118 ) ;
#245 = VERTEX_POINT ( 'NONE', #269 ) ;
#246 = LOCAL_TIME ( 12, 55, 56.00000000000000000, #121 ) ;
#247 = CARTESIAN_POINT ( 'NONE',  ( 1.222018468595096674E-14, -4.286263797015736595E-16, 3.500000000000000000 ) ) ;
#248 = EDGE_CURVE ( 'NONE', #32, #32, #94, .T. ) ;
#249 = CARTESIAN_POINT ( 'NONE',  ( 1.431507348925684360E-14, -5.021051876504147385E-16, 4.099999999999999645 ) ) ;
#250 =( NAMED_UNIT ( * ) PLANE_ANGLE_UNIT ( ) SI_UNIT ( $, .RADIAN. ) );
#251 = ADVANCED_FACE ( 'NONE', ( #201, #112 ), #91, .T. ) ;
#252 = FACE_BOUND ( 'NONE', #119, .T. ) ;
#253 = COORDINATED_UNIVERSAL_TIME_OFFSET ( 1, 0, .AHEAD. ) ;
#254 = PERSON_AND_ORGANIZATION ( #107, #52 ) ;
#255 = APPROVAL_ROLE ( '' ) ;
#256 = COORDINATED_UNIVERSAL_TIME_OFFSET ( 1, 0, .AHEAD. ) ;
#257 = ORIENTED_EDGE ( 'NONE', *, *, #248, .T. ) ;
#258 = EDGE_CURVE ( 'NONE', #231, #231, #209, .T. ) ;
#259 = PRODUCT_DEFINITION_FORMATION_WITH_SPECIFIED_SOURCE ( 'ANY', '', #242, .NOT_KNOWN. ) ;
#260 = CARTESIAN_POINT ( 'NONE',  ( 1.222018468595096674E-14, 1.945938318003754198E-33, 3.500000000000000000 ) ) ;
#261 = DIRECTION ( 'NONE',  ( -3.491481338843133355E-15, 1.224646799147353207E-16, -1.000000000000000000 ) ) ;
#262 = DIRECTION ( 'NONE',  ( 3.491481338843133355E-15, -1.224646799147353207E-16, 1.000000000000000000 ) ) ;
#263 = AXIS2_PLACEMENT_3D ( 'NONE', #86, #106, #196 ) ;
#264 = DIRECTION ( 'NONE',  ( -4.275831445896958607E-31, -1.000000000000000000, -1.224646799147353207E-16 ) ) ;
#265 = PRODUCT_RELATED_PRODUCT_CATEGORY ( 'detail', '', ( #242 ) ) ;
#266 = CARTESIAN_POINT ( 'NONE',  ( 2.093630881901951119E-14, -7.343468600541957939E-16, 5.996397169906267699 ) ) ;
#267 = FACE_OUTER_BOUND ( 'NONE', #186, .T. ) ;
#268 = AXIS2_PLACEMENT_3D ( 'NONE', #159, #226, #33 ) ;
#269 = CARTESIAN_POINT ( 'NONE',  ( 2.093630881901951119E-14, 0.7499999999999963363, 5.996397169906267699 ) ) ;
#270 = ADVANCED_FACE ( 'NONE', ( #252, #267 ), #158, .T. ) ;
#271 = CARTESIAN_POINT ( 'NONE',  ( 1.296523382149027890E-15, -4.547591855365904395E-17, 0.3713390553531120131 ) ) ;
#272 = DIRECTION ( 'NONE',  ( -3.491481338843133355E-15, 1.224646799147353207E-16, -1.000000000000000000 ) ) ;
#273 = PERSON_AND_ORGANIZATION_ROLE ( 'classification_officer' ) ;
#274 = MANIFOLD_SOLID_BREP ( 'Corps-Déplacer/Copier1[2]', #279 ) ;
#275 = COORDINATED_UNIVERSAL_TIME_OFFSET ( 1, 0, .AHEAD. ) ;
#276 = ORIENTED_EDGE ( 'NONE', *, *, #258, .T. ) ;
#277 = LOCAL_TIME ( 12, 55, 56.00000000000000000, #256 ) ;
#278 = ORIENTED_EDGE ( 'NONE', *, *, #88, .T. ) ;
#279 = CLOSED_SHELL ( 'NONE', ( #20, #167, #36, #134 ) ) ;
#280 = PERSON_AND_ORGANIZATION ( #107, #52 ) ;
#281 = ORIENTED_EDGE ( 'NONE', *, *, #206, .T. ) ;
#282 =( NAMED_UNIT ( * ) SI_UNIT ( $, .STERADIAN. ) SOLID_ANGLE_UNIT ( ) );
#283 = DIRECTION ( 'NONE',  ( 0.0000000000000000000, 1.000000000000000000, 0.0000000000000000000 ) ) ;
ENDSEC;
END-ISO-10303-21;
