ISO-10303-21;
HEADER;
FILE_DESCRIPTION (( 'STEP AP203' ),
    '1' );
FILE_NAME ('62329.step',
    '2021-12-16T10:16:19',
    ( '' ),
    ( '' ),
    'SwSTEP 2.0',
    'SolidWorks 2019',
    '' );
FILE_SCHEMA (( 'CONFIG_CONTROL_DESIGN' ));
ENDSEC;

DATA;
#1 = APPROVAL_STATUS ( 'not_yet_approved' ) ;
#2 = ORIENTED_EDGE ( 'NONE', *, *, #41, .T. ) ;
#3 =( NAMED_UNIT ( * ) PLANE_ANGLE_UNIT ( ) SI_UNIT ( $, .RADIAN. ) );
#4 = LOCAL_TIME ( 11, 16, 19.00000000000000000, #45 ) ;
#5 = PERSON_AND_ORGANIZATION_ROLE ( 'classification_officer' ) ;
#6 = CIRCLE ( 'NONE', #193, 0.7499999999999998890 ) ;
#7 = AXIS2_PLACEMENT_3D ( 'NONE', #52, #144, #208 ) ;
#8 = COORDINATED_UNIVERSAL_TIME_OFFSET ( 1, 0, .AHEAD. ) ;
#9 = PLANE ( 'NONE',  #258 ) ;
#10 = EDGE_LOOP ( 'NONE', ( #2 ) ) ;
#11 = CC_DESIGN_PERSON_AND_ORGANIZATION_ASSIGNMENT ( #246, #88, ( #137 ) ) ;
#12 = DIRECTION ( 'NONE',  ( -3.491481338843133355E-15, 1.224646799147353207E-16, -1.000000000000000000 ) ) ;
#13 = ORIENTED_EDGE ( 'NONE', *, *, #175, .F. ) ;
#14 = CARTESIAN_POINT ( 'NONE',  ( 1.082359215041371182E-14, -4.336808689942017736E-16, 3.099999999999999645 ) ) ;
#15 = CARTESIAN_POINT ( 'NONE',  ( -2.237705265228091152E-32, 7.848813510785550837E-34, -6.409042604161624178E-18 ) ) ;
#16 = CC_DESIGN_APPROVAL ( #143, ( #137 ) ) ;
#17 = CLOSED_SHELL ( 'NONE', ( #211, #123, #279, #203 ) ) ;
#18 = VERTEX_POINT ( 'NONE', #195 ) ;
#19 = CC_DESIGN_DATE_AND_TIME_ASSIGNMENT ( #154, #67, ( #106 ) ) ;
#20 = CARTESIAN_POINT ( 'NONE',  ( 1.082359215041371340E-14, 0.2594999999999996754, 3.100000000000000089 ) ) ;
#21 = EDGE_CURVE ( 'NONE', #220, #220, #23, .T. ) ;
#22 = DIRECTION ( 'NONE',  ( -3.491481338843133355E-15, 1.224646799147353207E-16, -1.000000000000000000 ) ) ;
#23 = CIRCLE ( 'NONE', #200, 0.2594999999999997309 ) ;
#24 = DIRECTION ( 'NONE',  ( 0.0000000000000000000, 0.0000000000000000000, 1.000000000000000000 ) ) ;
#25 = PERSON_AND_ORGANIZATION ( #243, #169 ) ;
#26 = EDGE_LOOP ( 'NONE', ( #103 ) ) ;
#27 = APPROVAL_DATE_TIME ( #113, #60 ) ;
#28 = AXIS2_PLACEMENT_3D ( 'NONE', #125, #283, #167 ) ;
#29 = APPROVAL_ROLE ( '' ) ;
#30 = DIRECTION ( 'NONE',  ( 0.0000000000000000000, 1.000000000000000000, 0.0000000000000000000 ) ) ;
#31 = APPROVAL_PERSON_ORGANIZATION ( #25, #60, #223 ) ;
#32 = ORIENTED_EDGE ( 'NONE', *, *, #21, .F. ) ;
#33 = DIRECTION ( 'NONE',  ( 0.0000000000000000000, 1.000000000000000000, 0.0000000000000000000 ) ) ;
#34 = CARTESIAN_POINT ( 'NONE',  ( 1.047444401652940007E-13, -3.673940397442059178E-15, 30.00000000000000000 ) ) ;
#35 = ORIENTED_EDGE ( 'NONE', *, *, #197, .F. ) ;
#36 = VERTEX_POINT ( 'NONE', #282 ) ;
#37 = FACE_OUTER_BOUND ( 'NONE', #44, .T. ) ;
#38 = DIRECTION ( 'NONE',  ( 4.275831445896958607E-31, 1.000000000000000000, 1.224646799147353207E-16 ) ) ;
#39 = CARTESIAN_POINT ( 'NONE',  ( 1.042207179644675275E-13, 0.7499999999999962252, 29.84999999999999787 ) ) ;
#40 = COORDINATED_UNIVERSAL_TIME_OFFSET ( 1, 0, .AHEAD. ) ;
#41 = EDGE_CURVE ( 'NONE', #244, #244, #42, .T. ) ;
#42 = CIRCLE ( 'NONE', #7, 0.2595000000000000084 ) ;
#43 = APPROVAL_STATUS ( 'not_yet_approved' ) ;
#44 = EDGE_LOOP ( 'NONE', ( #13 ) ) ;
#45 = COORDINATED_UNIVERSAL_TIME_OFFSET ( 1, 0, .AHEAD. ) ;
#46 = CARTESIAN_POINT ( 'NONE',  ( 0.0000000000000000000, 0.0000000000000000000, 0.0000000000000000000 ) ) ;
#47 = EDGE_LOOP ( 'NONE', ( #213 ) ) ;
#48 = APPROVAL_DATE_TIME ( #226, #143 ) ;
#49 = FACE_OUTER_BOUND ( 'NONE', #96, .T. ) ;
#50 = DIRECTION ( 'NONE',  ( 3.491481338843133355E-15, -1.224646799147353207E-16, 1.000000000000000000 ) ) ;
#51 = CC_DESIGN_APPROVAL ( #60, ( #93 ) ) ;
#52 = CARTESIAN_POINT ( 'NONE',  ( 8.728703347107833388E-15, -3.061616997868383141E-16, 2.500000000000000000 ) ) ;
#53 = DIRECTION ( 'NONE',  ( -3.491481338843133355E-15, 1.224646799147353207E-16, -1.000000000000000000 ) ) ;
#54 = CARTESIAN_POINT ( 'NONE',  ( 1.042207179644675275E-13, -3.655570695454848748E-15, 29.84999999999999787 ) ) ;
#55 = PRODUCT_DEFINITION_SHAPE ( 'NONE', 'NONE',  #137 ) ;
#56 = CARTESIAN_POINT ( 'NONE',  ( 0.0000000000000000000, 0.0000000000000000000, 0.0000000000000000000 ) ) ;
#57 = LOCAL_TIME ( 11, 16, 19.00000000000000000, #40 ) ;
#58 = CARTESIAN_POINT ( 'NONE',  ( 1.296523382149028482E-15, 0.2594999999999996754, 0.3713390553531121796 ) ) ;
#59 = DIRECTION ( 'NONE',  ( -3.491481338843133355E-15, 1.224646799147353207E-16, -1.000000000000000000 ) ) ;
#60 = APPROVAL ( #1, 'UNSPECIFIED' ) ;
#61 = FACE_OUTER_BOUND ( 'NONE', #249, .T. ) ;
#62 = TOROIDAL_SURFACE ( 'NONE', #204, 0.7595000000000001750, 0.5000000000000000000 ) ;
#63 = CYLINDRICAL_SURFACE ( 'NONE', #28, 0.2595000000000000639 ) ;
#64 = COORDINATED_UNIVERSAL_TIME_OFFSET ( 1, 0, .AHEAD. ) ;
#65 = ORIENTED_EDGE ( 'NONE', *, *, #69, .T. ) ;
#66 = CONICAL_SURFACE ( 'NONE', #232, 0.2594999999999997309, 0.2617993877991428575 ) ;
#67 = DATE_TIME_ROLE ( 'classification_date' ) ;
#68 = EDGE_LOOP ( 'NONE', ( #71 ) ) ;
#69 = EDGE_CURVE ( 'NONE', #147, #147, #72, .T. ) ;
#70 = CALENDAR_DATE ( 2021, 16, 12 ) ;
#71 = ORIENTED_EDGE ( 'NONE', *, *, #150, .T. ) ;
#72 = CIRCLE ( 'NONE', #112, 0.6000000000000000888 ) ;
#73 = PLANE ( 'NONE',  #160 ) ;
#74 = CC_DESIGN_PERSON_AND_ORGANIZATION_ASSIGNMENT ( #202, #5, ( #106 ) ) ;
#75 = EDGE_LOOP ( 'NONE', ( #124 ) ) ;
#76 = FACE_OUTER_BOUND ( 'NONE', #90, .T. ) ;
#77 = FACE_BOUND ( 'NONE', #135, .T. ) ;
#78 = EDGE_LOOP ( 'NONE', ( #247 ) ) ;
#79 = FACE_OUTER_BOUND ( 'NONE', #122, .T. ) ;
#80 = FACE_BOUND ( 'NONE', #234, .T. ) ;
#81 = CC_DESIGN_PERSON_AND_ORGANIZATION_ASSIGNMENT ( #181, #89, ( #93 ) ) ;
#82 = PLANE ( 'NONE',  #87 ) ;
#83 = EDGE_CURVE ( 'NONE', #18, #18, #240, .T. ) ;
#84 = EDGE_CURVE ( 'NONE', #36, #36, #269, .T. ) ;
#85 = CARTESIAN_POINT ( 'NONE',  ( 1.744482748017637468E-14, 0.7499999999999963363, 4.996397169906266811 ) ) ;
#86 = MANIFOLD_SOLID_BREP ( 'Corps-Déplacer/Copier1[1]', #94 ) ;
#87 = AXIS2_PLACEMENT_3D ( 'NONE', #15, #104, #166 ) ;
#88 = PERSON_AND_ORGANIZATION_ROLE ( 'creator' ) ;
#89 = PERSON_AND_ORGANIZATION_ROLE ( 'creator' ) ;
#90 = EDGE_LOOP ( 'NONE', ( #253 ) ) ;
#91 = CALENDAR_DATE ( 2021, 16, 12 ) ;
#92 =( LENGTH_UNIT ( ) NAMED_UNIT ( * ) SI_UNIT ( .MILLI., .METRE. ) );
#93 = PRODUCT_DEFINITION_FORMATION_WITH_SPECIFIED_SOURCE ( 'ANY', '', #146, .NOT_KNOWN. ) ;
#94 = CLOSED_SHELL ( 'NONE', ( #186, #207, #190, #233, #281, #120, #97 ) ) ;
#95 = DIRECTION ( 'NONE',  ( 0.0000000000000000000, 1.000000000000000000, 0.0000000000000000000 ) ) ;
#96 = EDGE_LOOP ( 'NONE', ( #272 ) ) ;
#97 = ADVANCED_FACE ( 'NONE', ( #236 ), #9, .F. ) ;
#98 = CC_DESIGN_PERSON_AND_ORGANIZATION_ASSIGNMENT ( #268, #114, ( #93 ) ) ;
#99 = SHAPE_DEFINITION_REPRESENTATION ( #55, #177 ) ;
#100 = AXIS2_PLACEMENT_3D ( 'NONE', #101, #189, #95 ) ;
#101 = CARTESIAN_POINT ( 'NONE',  ( 1.127542308347002474E-14, -3.954886034928378512E-16, 3.229409522551256462 ) ) ;
#102 = CIRCLE ( 'NONE', #157, 0.1600000000000000033 ) ;
#103 = ORIENTED_EDGE ( 'NONE', *, *, #175, .T. ) ;
#104 = DIRECTION ( 'NONE',  ( 3.491481338843133355E-15, -1.224646799147353207E-16, 1.000000000000000000 ) ) ;
#105 = DIRECTION ( 'NONE',  ( 4.275831445896959482E-31, 1.000000000000000000, 1.224646799147353207E-16 ) ) ;
#106 = SECURITY_CLASSIFICATION ( '', '', #174 ) ;
#107 = CIRCLE ( 'NONE', #178, 0.2595000000000000639 ) ;
#108 = CARTESIAN_POINT ( 'NONE',  ( 8.728703347107833388E-15, 0.2594999999999996754, 2.500000000000000000 ) ) ;
#109 = FACE_OUTER_BOUND ( 'NONE', #26, .T. ) ;
#110 = DESIGN_CONTEXT ( 'detailed design', #271, 'design' ) ;
#111 = FACE_OUTER_BOUND ( 'NONE', #68, .T. ) ;
#112 = AXIS2_PLACEMENT_3D ( 'NONE', #34, #12, #187 ) ;
#113 = DATE_AND_TIME ( #225, #118 ) ;
#114 = PERSON_AND_ORGANIZATION_ROLE ( 'design_supplier' ) ;
#115 = CALENDAR_DATE ( 2021, 16, 12 ) ;
#116 = EDGE_LOOP ( 'NONE', ( #224 ) ) ;
#117 = ORIENTED_EDGE ( 'NONE', *, *, #83, .T. ) ;
#118 = LOCAL_TIME ( 11, 16, 19.00000000000000000, #8 ) ;
#119 = DIRECTION ( 'NONE',  ( 0.0000000000000000000, 1.000000000000000000, 0.0000000000000000000 ) ) ;
#120 = ADVANCED_FACE ( 'NONE', ( #76, #251 ), #129, .T. ) ;
#121 = CARTESIAN_POINT ( 'NONE',  ( 1.047444401652940007E-13, 4.499279347985518085E-33, 30.00000000000000000 ) ) ;
#122 = EDGE_LOOP ( 'NONE', ( #185 ) ) ;
#123 = ADVANCED_FACE ( 'NONE', ( #77, #49 ), #66, .T. ) ;
#124 = ORIENTED_EDGE ( 'NONE', *, *, #83, .F. ) ;
#125 = CARTESIAN_POINT ( 'NONE',  ( 0.0000000000000000000, 0.0000000000000000000, 0.0000000000000000000 ) ) ;
#126 = CC_DESIGN_PERSON_AND_ORGANIZATION_ASSIGNMENT ( #248, #265, ( #146 ) ) ;
#127 = CARTESIAN_POINT ( 'NONE',  ( 1.744482748017637468E-14, -6.118821801394603499E-16, 4.996397169906266811 ) ) ;
#128 = DIRECTION ( 'NONE',  ( 0.0000000000000000000, -1.000000000000000000, 0.0000000000000000000 ) ) ;
#129 = CONICAL_SURFACE ( 'NONE', #227, 0.6000000000000000888, 0.7853981633974450594 ) ;
#130 = VERTEX_POINT ( 'NONE', #20 ) ;
#131 = APPROVAL ( #43, 'UNSPECIFIED' ) ;
#132 = PLANE ( 'NONE',  #171 ) ;
#133 = DATE_TIME_ROLE ( 'creation_date' ) ;
#134 = LOCAL_TIME ( 11, 16, 19.00000000000000000, #136 ) ;
#135 = EDGE_LOOP ( 'NONE', ( #35 ) ) ;
#136 = COORDINATED_UNIVERSAL_TIME_OFFSET ( 1, 0, .AHEAD. ) ;
#137 = PRODUCT_DEFINITION ( 'UNKNOWN', '', #93, #110 ) ;
#138 = DATE_AND_TIME ( #115, #57 ) ;
#139 = MECHANICAL_CONTEXT ( 'NONE', #172, 'mechanical' ) ;
#140 = DIRECTION ( 'NONE',  ( 3.491481338843133355E-15, -1.224646799147353207E-16, 1.000000000000000000 ) ) ;
#141 = DIRECTION ( 'NONE',  ( -3.491481338843133355E-15, 1.224646799147353207E-16, -1.000000000000000000 ) ) ;
#142 = DIRECTION ( 'NONE',  ( -3.491481338843133355E-15, 1.224646799147353207E-16, -1.000000000000000000 ) ) ;
#143 = APPROVAL ( #266, 'UNSPECIFIED' ) ;
#144 = DIRECTION ( 'NONE',  ( -3.491481338843133355E-15, 1.224646799147353207E-16, -1.000000000000000000 ) ) ;
#145 = ORIENTED_EDGE ( 'NONE', *, *, #84, .F. ) ;
#146 = PRODUCT ( '62329', '62329', '', ( #139 ) ) ;
#147 = VERTEX_POINT ( 'NONE', #239 ) ;
#148 = CARTESIAN_POINT ( 'NONE',  ( -4.475410530456182305E-32, 1.569762702157110167E-33, -1.281808520832324836E-17 ) ) ;
#149 = DIRECTION ( 'NONE',  ( -3.491481338843133355E-15, 1.224646799147353207E-16, -1.000000000000000000 ) ) ;
#150 = EDGE_CURVE ( 'NONE', #217, #217, #6, .T. ) ;
#151 = DIRECTION ( 'NONE',  ( 3.491481338843133355E-15, -1.224646799147353207E-16, 1.000000000000000000 ) ) ;
#152 = CARTESIAN_POINT ( 'NONE',  ( 2.365919782978951696E-32, 0.1600000000000000033, 6.776263578034402713E-18 ) ) ;
#153 = APPLICATION_PROTOCOL_DEFINITION ( 'international standard', 'config_control_design', 1994, #271 ) ;
#154 = DATE_AND_TIME ( #91, #219 ) ;
#155 = APPROVAL_ROLE ( '' ) ;
#156 = DATE_AND_TIME ( #70, #134 ) ;
#157 = AXIS2_PLACEMENT_3D ( 'NONE', #148, #261, #38 ) ;
#158 = EDGE_LOOP ( 'NONE', ( #212 ) ) ;
#159 = CARTESIAN_POINT ( 'NONE',  ( 1.296523382149028285E-15, -4.547591855365905628E-17, 0.3713390553531121241 ) ) ;
#160 = AXIS2_PLACEMENT_3D ( 'NONE', #252, #50, #210 ) ;
#161 = AXIS2_PLACEMENT_3D ( 'NONE', #127, #151, #128 ) ;
#162 = CARTESIAN_POINT ( 'NONE',  ( 1.047444401652940007E-13, -3.673940397442059178E-15, 30.00000000000000000 ) ) ;
#163 = CARTESIAN_POINT ( 'NONE',  ( 1.296523382149028285E-15, -4.547591855365905628E-17, 0.3713390553531121241 ) ) ;
#164 = FACE_OUTER_BOUND ( 'NONE', #158, .T. ) ;
#165 = AXIS2_PLACEMENT_3D ( 'NONE', #254, #142, #33 ) ;
#166 = DIRECTION ( 'NONE',  ( -4.275831445896958607E-31, -1.000000000000000000, -1.224646799147353207E-16 ) ) ;
#167 = DIRECTION ( 'NONE',  ( 4.275831445896959482E-31, 1.000000000000000000, 1.224646799147353207E-16 ) ) ;
#168 = CYLINDRICAL_SURFACE ( 'NONE', #241, 0.2594999999999998419 ) ;
#169 = ORGANIZATION ( 'UNSPECIFIED', 'UNSPECIFIED', '' ) ;
#170 = DIRECTION ( 'NONE',  ( 4.275831445896958607E-31, 1.000000000000000000, 1.224646799147353454E-16 ) ) ;
#171 = AXIS2_PLACEMENT_3D ( 'NONE', #218, #242, #199 ) ;
#172 = APPLICATION_CONTEXT ( 'configuration controlled 3d designs of mechanical parts and assemblies' ) ;
#173 = DIRECTION ( 'NONE',  ( 1.000000000000000000, 0.0000000000000000000, 0.0000000000000000000 ) ) ;
#174 = SECURITY_CLASSIFICATION_LEVEL ( 'unclassified' ) ;
#175 = EDGE_CURVE ( 'NONE', #130, #130, #107, .T. ) ;
#176 = EDGE_LOOP ( 'NONE', ( #32 ) ) ;
#177 = ADVANCED_BREP_SHAPE_REPRESENTATION ( '62329', ( #86, #182, #274 ), #250 ) ;
#178 = AXIS2_PLACEMENT_3D ( 'NONE', #184, #141, #119 ) ;
#179 = PERSON_AND_ORGANIZATION ( #243, #169 ) ;
#180 = CC_DESIGN_DATE_AND_TIME_ASSIGNMENT ( #138, #133, ( #137 ) ) ;
#181 = PERSON_AND_ORGANIZATION ( #243, #169 ) ;
#182 = MANIFOLD_SOLID_BREP ( 'Corps-Déplacer/Copier1[2]', #17 ) ;
#183 = APPROVAL_PERSON_ORGANIZATION ( #228, #143, #29 ) ;
#184 = CARTESIAN_POINT ( 'NONE',  ( 1.082359215041371340E-14, -3.796405077356794918E-16, 3.100000000000000089 ) ) ;
#185 = ORIENTED_EDGE ( 'NONE', *, *, #84, .T. ) ;
#186 = ADVANCED_FACE ( 'NONE', ( #270 ), #73, .F. ) ;
#187 = DIRECTION ( 'NONE',  ( 0.0000000000000000000, 1.000000000000000000, 0.0000000000000000000 ) ) ;
#188 = CIRCLE ( 'NONE', #215, 0.7499999999999970024 ) ;
#189 = DIRECTION ( 'NONE',  ( -3.491481338843133355E-15, 1.224646799147353207E-16, -1.000000000000000000 ) ) ;
#190 = ADVANCED_FACE ( 'NONE', ( #37, #79 ), #62, .F. ) ;
#191 = DIRECTION ( 'NONE',  ( -3.491481338843133355E-15, 1.224646799147353207E-16, -1.000000000000000000 ) ) ;
#192 = DIRECTION ( 'NONE',  ( 0.0000000000000000000, 1.000000000000000000, 0.0000000000000000000 ) ) ;
#193 = AXIS2_PLACEMENT_3D ( 'NONE', #54, #230, #30 ) ;
#194 = FACE_OUTER_BOUND ( 'NONE', #47, .T. ) ;
#195 = CARTESIAN_POINT ( 'NONE',  ( 8.728703347107833388E-15, 0.2594999999999996754, 2.500000000000000000 ) ) ;
#196 = EDGE_CURVE ( 'NONE', #198, #198, #188, .T. ) ;
#197 = EDGE_CURVE ( 'NONE', #264, #264, #102, .T. ) ;
#198 = VERTEX_POINT ( 'NONE', #85 ) ;
#199 = DIRECTION ( 'NONE',  ( -4.275831445896958607E-31, -1.000000000000000000, -1.224646799147353207E-16 ) ) ;
#200 = AXIS2_PLACEMENT_3D ( 'NONE', #159, #235, #216 ) ;
#201 = EDGE_LOOP ( 'NONE', ( #65 ) ) ;
#202 = PERSON_AND_ORGANIZATION ( #243, #169 ) ;
#203 = ADVANCED_FACE ( 'NONE', ( #238 ), #132, .T. ) ;
#204 = AXIS2_PLACEMENT_3D ( 'NONE', #14, #22, #221 ) ;
#205 = APPLICATION_PROTOCOL_DEFINITION ( 'international standard', 'config_control_design', 1994, #172 ) ;
#206 = CALENDAR_DATE ( 2021, 16, 12 ) ;
#207 = ADVANCED_FACE ( 'NONE', ( #280, #109 ), #63, .T. ) ;
#208 = DIRECTION ( 'NONE',  ( 0.0000000000000000000, 1.000000000000000000, 0.0000000000000000000 ) ) ;
#209 = PRODUCT_RELATED_PRODUCT_CATEGORY ( 'detail', '', ( #146 ) ) ;
#210 = DIRECTION ( 'NONE',  ( -4.275831445896958607E-31, -1.000000000000000000, -1.224646799147353207E-16 ) ) ;
#211 = ADVANCED_FACE ( 'NONE', ( #164 ), #82, .F. ) ;
#212 = ORIENTED_EDGE ( 'NONE', *, *, #197, .T. ) ;
#213 = ORIENTED_EDGE ( 'NONE', *, *, #196, .F. ) ;
#214 = APPROVAL_PERSON_ORGANIZATION ( #179, #131, #155 ) ;
#215 = AXIS2_PLACEMENT_3D ( 'NONE', #259, #278, #192 ) ;
#216 = DIRECTION ( 'NONE',  ( 7.421695354093402052E-31, 1.000000000000000000, 2.089021526947024178E-16 ) ) ;
#217 = VERTEX_POINT ( 'NONE', #39 ) ;
#218 = CARTESIAN_POINT ( 'NONE',  ( 8.728703347107833388E-15, 1.945938318003756250E-33, 2.500000000000000000 ) ) ;
#219 = LOCAL_TIME ( 11, 16, 19.00000000000000000, #64 ) ;
#220 = VERTEX_POINT ( 'NONE', #58 ) ;
#221 = DIRECTION ( 'NONE',  ( 4.275831445896958607E-31, 1.000000000000000000, 1.224646799147353207E-16 ) ) ;
#222 = CC_DESIGN_APPROVAL ( #131, ( #106 ) ) ;
#223 = APPROVAL_ROLE ( '' ) ;
#224 = ORIENTED_EDGE ( 'NONE', *, *, #41, .F. ) ;
#225 = CALENDAR_DATE ( 2021, 16, 12 ) ;
#226 = DATE_AND_TIME ( #206, #4 ) ;
#227 = AXIS2_PLACEMENT_3D ( 'NONE', #162, #53, #276 ) ;
#228 = PERSON_AND_ORGANIZATION ( #243, #169 ) ;
#229 = APPROVAL_DATE_TIME ( #156, #131 ) ;
#230 = DIRECTION ( 'NONE',  ( -3.491481338843133355E-15, 1.224646799147353207E-16, -1.000000000000000000 ) ) ;
#231 = EDGE_LOOP ( 'NONE', ( #117 ) ) ;
#232 = AXIS2_PLACEMENT_3D ( 'NONE', #163, #140, #255 ) ;
#233 = ADVANCED_FACE ( 'NONE', ( #80, #61 ), #262, .T. ) ;
#234 = EDGE_LOOP ( 'NONE', ( #145 ) ) ;
#235 = DIRECTION ( 'NONE',  ( -3.491481338843133355E-15, 1.224646799147353207E-16, -1.000000000000000000 ) ) ;
#236 = FACE_OUTER_BOUND ( 'NONE', #78, .T. ) ;
#237 = CARTESIAN_POINT ( 'NONE',  ( 0.0000000000000000000, 0.0000000000000000000, 0.0000000000000000000 ) ) ;
#238 = FACE_OUTER_BOUND ( 'NONE', #75, .T. ) ;
#239 = CARTESIAN_POINT ( 'NONE',  ( 1.047444401652940007E-13, 0.5999999999999963141, 30.00000000000000000 ) ) ;
#240 = CIRCLE ( 'NONE', #165, 0.2595000000000000084 ) ;
#241 = AXIS2_PLACEMENT_3D ( 'NONE', #237, #59, #105 ) ;
#242 = DIRECTION ( 'NONE',  ( 3.491481338843133355E-15, -1.224646799147353207E-16, 1.000000000000000000 ) ) ;
#243 = PERSON ( 'UNSPECIFIED', 'UNSPECIFIED', 'UNSPECIFIED', ('UNSPECIFIED'), ('UNSPECIFIED'), ('UNSPECIFIED') ) ;
#244 = VERTEX_POINT ( 'NONE', #108 ) ;
#245 =( NAMED_UNIT ( * ) SI_UNIT ( $, .STERADIAN. ) SOLID_ANGLE_UNIT ( ) );
#246 = PERSON_AND_ORGANIZATION ( #243, #169 ) ;
#247 = ORIENTED_EDGE ( 'NONE', *, *, #69, .F. ) ;
#248 = PERSON_AND_ORGANIZATION ( #243, #169 ) ;
#249 = EDGE_LOOP ( 'NONE', ( #267 ) ) ;
#250 =( GEOMETRIC_REPRESENTATION_CONTEXT ( 3 ) GLOBAL_UNCERTAINTY_ASSIGNED_CONTEXT ( ( #263 ) ) GLOBAL_UNIT_ASSIGNED_CONTEXT ( ( #92, #3, #245 ) ) REPRESENTATION_CONTEXT ( 'NONE', 'WORKASPACE' ) );
#251 = FACE_BOUND ( 'NONE', #201, .T. ) ;
#252 = CARTESIAN_POINT ( 'NONE',  ( 8.728703347107833388E-15, 1.945938318003756250E-33, 2.500000000000000000 ) ) ;
#253 = ORIENTED_EDGE ( 'NONE', *, *, #150, .F. ) ;
#254 = CARTESIAN_POINT ( 'NONE',  ( 8.728703347107833388E-15, -3.061616997868383141E-16, 2.500000000000000000 ) ) ;
#255 = DIRECTION ( 'NONE',  ( -7.421695354093402052E-31, -1.000000000000000000, -2.089021526947024178E-16 ) ) ;
#256 = CYLINDRICAL_SURFACE ( 'NONE', #275, 0.7499999999999984457 ) ;
#257 = CC_DESIGN_SECURITY_CLASSIFICATION ( #106, ( #93 ) ) ;
#258 = AXIS2_PLACEMENT_3D ( 'NONE', #121, #191, #273 ) ;
#259 = CARTESIAN_POINT ( 'NONE',  ( 1.744482748017637468E-14, -6.118821801394603499E-16, 4.996397169906266811 ) ) ;
#260 = FACE_OUTER_BOUND ( 'NONE', #176, .T. ) ;
#261 = DIRECTION ( 'NONE',  ( -3.491481338843133355E-15, 1.224646799147353207E-16, -1.000000000000000000 ) ) ;
#262 = CONICAL_SURFACE ( 'NONE', #161, 0.7499999999999970024, 0.2617993877991428575 ) ;
#263 = UNCERTAINTY_MEASURE_WITH_UNIT (LENGTH_MEASURE( 1.000000000000000082E-05 ), #92, 'distance_accuracy_value', 'NONE');
#264 = VERTEX_POINT ( 'NONE', #152 ) ;
#265 = PERSON_AND_ORGANIZATION_ROLE ( 'design_owner' ) ;
#266 = APPROVAL_STATUS ( 'not_yet_approved' ) ;
#267 = ORIENTED_EDGE ( 'NONE', *, *, #196, .T. ) ;
#268 = PERSON_AND_ORGANIZATION ( #243, #169 ) ;
#269 = CIRCLE ( 'NONE', #100, 0.2765370868554650197 ) ;
#270 = FACE_OUTER_BOUND ( 'NONE', #10, .T. ) ;
#271 = APPLICATION_CONTEXT ( 'configuration controlled 3d designs of mechanical parts and assemblies' ) ;
#272 = ORIENTED_EDGE ( 'NONE', *, *, #21, .T. ) ;
#273 = DIRECTION ( 'NONE',  ( 4.275831445896958607E-31, 1.000000000000000000, 1.224646799147353207E-16 ) ) ;
#274 = AXIS2_PLACEMENT_3D ( 'NONE', #46, #24, #173 ) ;
#275 = AXIS2_PLACEMENT_3D ( 'NONE', #56, #149, #170 ) ;
#276 = DIRECTION ( 'NONE',  ( 0.0000000000000000000, 1.000000000000000000, 0.0000000000000000000 ) ) ;
#277 = FACE_OUTER_BOUND ( 'NONE', #231, .T. ) ;
#278 = DIRECTION ( 'NONE',  ( -3.491481338843133355E-15, 1.224646799147353207E-16, -1.000000000000000000 ) ) ;
#279 = ADVANCED_FACE ( 'NONE', ( #260, #277 ), #168, .T. ) ;
#280 = FACE_OUTER_BOUND ( 'NONE', #116, .T. ) ;
#281 = ADVANCED_FACE ( 'NONE', ( #194, #111 ), #256, .T. ) ;
#282 = CARTESIAN_POINT ( 'NONE',  ( 1.127542308347002474E-14, 0.2765370868554646311, 3.229409522551256462 ) ) ;
#283 = DIRECTION ( 'NONE',  ( -3.491481338843133355E-15, 1.224646799147353207E-16, -1.000000000000000000 ) ) ;
ENDSEC;
END-ISO-10303-21;
