ISO-10303-21;
HEADER;
FILE_DESCRIPTION (( 'STEP AP203' ),
    '1' );
FILE_NAME ('62328.step',
    '2021-12-16T11:55:55',
    ( '' ),
    ( '' ),
    'SwSTEP 2.0',
    'SolidWorks 2019',
    '' );
FILE_SCHEMA (( 'CONFIG_CONTROL_DESIGN' ));
ENDSEC;

DATA;
#1 = DIRECTION ( 'NONE',  ( 3.491481338843133355E-15, -1.224646799147353207E-16, 1.000000000000000000 ) ) ;
#2 = ORIENTED_EDGE ( 'NONE', *, *, #40, .F. ) ;
#3 =( LENGTH_UNIT ( ) NAMED_UNIT ( * ) SI_UNIT ( .MILLI., .METRE. ) );
#4 = ORIENTED_EDGE ( 'NONE', *, *, #105, .T. ) ;
#5 = ADVANCED_FACE ( 'NONE', ( #239, #136 ), #31, .T. ) ;
#6 = DIRECTION ( 'NONE',  ( -3.491481338843133355E-15, 1.224646799147353207E-16, -1.000000000000000000 ) ) ;
#7 = CLOSED_SHELL ( 'NONE', ( #161, #5, #220, #92, #205, #70, #232 ) ) ;
#8 = DATE_AND_TIME ( #223, #83 ) ;
#9 = CYLINDRICAL_SURFACE ( 'NONE', #29, 0.2084999999999995468 ) ;
#10 = APPROVAL_DATE_TIME ( #8, #140 ) ;
#11 = PLANE ( 'NONE',  #23 ) ;
#12 = APPROVAL_STATUS ( 'not_yet_approved' ) ;
#13 = FACE_OUTER_BOUND ( 'NONE', #163, .T. ) ;
#14 = CIRCLE ( 'NONE', #209, 0.2084999999999996856 ) ;
#15 = CLOSED_SHELL ( 'NONE', ( #226, #151, #185, #261 ) ) ;
#16 = PERSON_AND_ORGANIZATION_ROLE ( 'design_supplier' ) ;
#17 = CC_DESIGN_PERSON_AND_ORGANIZATION_ASSIGNMENT ( #94, #109, ( #97 ) ) ;
#18 = LOCAL_TIME ( 12, 55, 55.00000000000000000, #178 ) ;
#19 = EDGE_LOOP ( 'NONE', ( #22 ) ) ;
#20 = APPROVAL ( #12, 'UNSPECIFIED' ) ;
#21 = DIRECTION ( 'NONE',  ( -4.275831445896958607E-31, -1.000000000000000000, -1.224646799147353207E-16 ) ) ;
#22 = ORIENTED_EDGE ( 'NONE', *, *, #95, .F. ) ;
#23 = AXIS2_PLACEMENT_3D ( 'NONE', #172, #197, #265 ) ;
#24 = PLANE ( 'NONE',  #207 ) ;
#25 = FACE_OUTER_BOUND ( 'NONE', #256, .T. ) ;
#26 = DIRECTION ( 'NONE',  ( 0.0000000000000000000, 1.000000000000000000, 0.0000000000000000000 ) ) ;
#27 = CARTESIAN_POINT ( 'NONE',  ( 8.728703347107833388E-15, -3.061616997868383141E-16, 2.500000000000000000 ) ) ;
#28 = DIRECTION ( 'NONE',  ( 3.491481338843133355E-15, -1.224646799147353207E-16, 1.000000000000000000 ) ) ;
#29 = AXIS2_PLACEMENT_3D ( 'NONE', #64, #86, #177 ) ;
#30 = APPLICATION_PROTOCOL_DEFINITION ( 'international standard', 'config_control_design', 1994, #280 ) ;
#31 = CYLINDRICAL_SURFACE ( 'NONE', #96, 0.2084999999999997133 ) ;
#32 = DIRECTION ( 'NONE',  ( 0.0000000000000000000, 1.000000000000000000, 0.0000000000000000000 ) ) ;
#33 = PERSON_AND_ORGANIZATION ( #116, #142 ) ;
#34 = DIRECTION ( 'NONE',  ( -3.491481338843133355E-15, 1.224646799147353207E-16, -1.000000000000000000 ) ) ;
#35 = AXIS2_PLACEMENT_3D ( 'NONE', #179, #52, #157 ) ;
#36 = EDGE_CURVE ( 'NONE', #99, #99, #14, .T. ) ;
#37 = AXIS2_PLACEMENT_3D ( 'NONE', #123, #43, #21 ) ;
#38 = EDGE_LOOP ( 'NONE', ( #211 ) ) ;
#39 = AXIS2_PLACEMENT_3D ( 'NONE', #270, #244, #68 ) ;
#40 = EDGE_CURVE ( 'NONE', #173, #173, #229, .T. ) ;
#41 = CARTESIAN_POINT ( 'NONE',  ( -7.511130005790926639E-32, 2.634549758933931866E-33, -2.151273135052660213E-17 ) ) ;
#42 = EDGE_LOOP ( 'NONE', ( #233 ) ) ;
#43 = DIRECTION ( 'NONE',  ( 3.491481338843133355E-15, -1.224646799147353207E-16, 1.000000000000000000 ) ) ;
#44 = EDGE_LOOP ( 'NONE', ( #4 ) ) ;
#45 = EDGE_LOOP ( 'NONE', ( #213 ) ) ;
#46 = PRODUCT ( '62328', '62328', '', ( #176 ) ) ;
#47 = FACE_OUTER_BOUND ( 'NONE', #42, .T. ) ;
#48 = VERTEX_POINT ( 'NONE', #76 ) ;
#49 = DIRECTION ( 'NONE',  ( 0.0000000000000000000, 1.000000000000000000, 0.0000000000000000000 ) ) ;
#50 = CC_DESIGN_APPROVAL ( #140, ( #186 ) ) ;
#51 = DIRECTION ( 'NONE',  ( -3.491481338843133355E-15, 1.224646799147353207E-16, -1.000000000000000000 ) ) ;
#52 = DIRECTION ( 'NONE',  ( -3.491481338843133355E-15, 1.224646799147353207E-16, -1.000000000000000000 ) ) ;
#53 = COORDINATED_UNIVERSAL_TIME_OFFSET ( 1, 0, .AHEAD. ) ;
#54 = DIRECTION ( 'NONE',  ( 1.000000000000000000, 0.0000000000000000000, 0.0000000000000000000 ) ) ;
#55 = AXIS2_PLACEMENT_3D ( 'NONE', #218, #34, #204 ) ;
#56 = CC_DESIGN_DATE_AND_TIME_ASSIGNMENT ( #67, #208, ( #160 ) ) ;
#57 = CC_DESIGN_PERSON_AND_ORGANIZATION_ASSIGNMENT ( #250, #111, ( #160 ) ) ;
#58 = CARTESIAN_POINT ( 'NONE',  ( 1.810937715343869651E-14, 0.7499999999999963363, 5.186731761092286064 ) ) ;
#59 = CARTESIAN_POINT ( 'NONE',  ( 1.042207179644675275E-13, 0.7499999999999962252, 29.84999999999999787 ) ) ;
#60 = EDGE_LOOP ( 'NONE', ( #263 ) ) ;
#61 = VERTEX_POINT ( 'NONE', #63 ) ;
#62 = EDGE_LOOP ( 'NONE', ( #236 ) ) ;
#63 = CARTESIAN_POINT ( 'NONE',  ( 1.082359215041371340E-14, 0.2084999999999993803, 3.100000000000000089 ) ) ;
#64 = CARTESIAN_POINT ( 'NONE',  ( 0.0000000000000000000, 0.0000000000000000000, 0.0000000000000000000 ) ) ;
#65 = VERTEX_POINT ( 'NONE', #58 ) ;
#66 = EDGE_CURVE ( 'NONE', #267, #267, #258, .T. ) ;
#67 = DATE_AND_TIME ( #243, #278 ) ;
#68 = DIRECTION ( 'NONE',  ( 4.275831445896958607E-31, 1.000000000000000000, 1.224646799147353700E-16 ) ) ;
#69 = AXIS2_PLACEMENT_3D ( 'NONE', #235, #102, #146 ) ;
#70 = ADVANCED_FACE ( 'NONE', ( #13, #227 ), #183, .T. ) ;
#71 = CALENDAR_DATE ( 2021, 16, 12 ) ;
#72 = APPROVAL_ROLE ( '' ) ;
#73 = TOROIDAL_SURFACE ( 'NONE', #69, 0.7084999999999997966, 0.5000000000000000000 ) ;
#74 = MANIFOLD_SOLID_BREP ( 'Corps-Déplacer/Copier1[1]', #7 ) ;
#75 = ORIENTED_EDGE ( 'NONE', *, *, #241, .T. ) ;
#76 = CARTESIAN_POINT ( 'NONE',  ( 1.047444401652940007E-13, 0.5999999999999963141, 30.00000000000000000 ) ) ;
#77 = AXIS2_PLACEMENT_3D ( 'NONE', #155, #6, #134 ) ;
#78 = CARTESIAN_POINT ( 'NONE',  ( 8.728703347107833388E-15, 0.2084999999999993803, 2.500000000000000000 ) ) ;
#79 = ORIENTED_EDGE ( 'NONE', *, *, #95, .T. ) ;
#80 = DIRECTION ( 'NONE',  ( -3.491481338843133355E-15, 1.224646799147353207E-16, -1.000000000000000000 ) ) ;
#81 = DIRECTION ( 'NONE',  ( -3.491481338843133355E-15, 1.224646799147353207E-16, -1.000000000000000000 ) ) ;
#82 = FACE_OUTER_BOUND ( 'NONE', #45, .T. ) ;
#83 = LOCAL_TIME ( 12, 55, 55.00000000000000000, #93 ) ;
#84 = CC_DESIGN_PERSON_AND_ORGANIZATION_ASSIGNMENT ( #88, #230, ( #186 ) ) ;
#85 = CALENDAR_DATE ( 2021, 16, 12 ) ;
#86 = DIRECTION ( 'NONE',  ( -3.491481338843133355E-15, 1.224646799147353207E-16, -1.000000000000000000 ) ) ;
#87 = EDGE_CURVE ( 'NONE', #65, #65, #131, .T. ) ;
#88 = PERSON_AND_ORGANIZATION ( #116, #142 ) ;
#89 = CARTESIAN_POINT ( 'NONE',  ( 8.728703347107833388E-15, -3.061616997868383141E-16, 2.500000000000000000 ) ) ;
#90 = APPROVAL_DATE_TIME ( #137, #20 ) ;
#91 = DIRECTION ( 'NONE',  ( -3.491481338843133355E-15, 1.224646799147353207E-16, -1.000000000000000000 ) ) ;
#92 = ADVANCED_FACE ( 'NONE', ( #240, #47 ), #175, .T. ) ;
#93 = COORDINATED_UNIVERSAL_TIME_OFFSET ( 1, 0, .AHEAD. ) ;
#94 = PERSON_AND_ORGANIZATION ( #116, #142 ) ;
#95 = EDGE_CURVE ( 'NONE', #48, #48, #281, .T. ) ;
#96 = AXIS2_PLACEMENT_3D ( 'NONE', #152, #80, #103 ) ;
#97 = SECURITY_CLASSIFICATION ( '', '', #133 ) ;
#98 = EDGE_LOOP ( 'NONE', ( #118 ) ) ;
#99 = VERTEX_POINT ( 'NONE', #78 ) ;
#100 = LOCAL_TIME ( 12, 55, 55.00000000000000000, #53 ) ;
#101 = CARTESIAN_POINT ( 'NONE',  ( 1.022885281393951144E-15, 0.2084999999999993803, 0.2929659883941621579 ) ) ;
#102 = DIRECTION ( 'NONE',  ( -3.491481338843133355E-15, 1.224646799147353207E-16, -1.000000000000000000 ) ) ;
#103 = DIRECTION ( 'NONE',  ( 4.275831445896957731E-31, 1.000000000000000000, 1.224646799147352961E-16 ) ) ;
#104 = APPROVAL ( #153, 'UNSPECIFIED' ) ;
#105 = EDGE_CURVE ( 'NONE', #259, #259, #117, .T. ) ;
#106 = PLANE ( 'NONE',  #37 ) ;
#107 = DIRECTION ( 'NONE',  ( 0.0000000000000000000, -1.000000000000000000, 0.0000000000000000000 ) ) ;
#108 = FACE_OUTER_BOUND ( 'NONE', #44, .T. ) ;
#109 = PERSON_AND_ORGANIZATION_ROLE ( 'classification_officer' ) ;
#110 = CARTESIAN_POINT ( 'NONE',  ( 1.127542308347002316E-14, -3.954886034928378019E-16, 3.229409522551256018 ) ) ;
#111 = PERSON_AND_ORGANIZATION_ROLE ( 'creator' ) ;
#112 = CARTESIAN_POINT ( 'NONE',  ( 1.047444401652940007E-13, -3.673940397442059178E-15, 30.00000000000000000 ) ) ;
#113 = COORDINATED_UNIVERSAL_TIME_OFFSET ( 1, 0, .AHEAD. ) ;
#114 = CC_DESIGN_PERSON_AND_ORGANIZATION_ASSIGNMENT ( #228, #16, ( #186 ) ) ;
#115 = CONICAL_SURFACE ( 'NONE', #189, 0.2084999999999994080, 0.2617993877991430796 ) ;
#116 = PERSON ( 'UNSPECIFIED', 'UNSPECIFIED', 'UNSPECIFIED', ('UNSPECIFIED'), ('UNSPECIFIED'), ('UNSPECIFIED') ) ;
#117 = CIRCLE ( 'NONE', #251, 0.7499999999999998890 ) ;
#118 = ORIENTED_EDGE ( 'NONE', *, *, #187, .F. ) ;
#119 = CC_DESIGN_APPROVAL ( #20, ( #97 ) ) ;
#120 = DESIGN_CONTEXT ( 'detailed design', #164, 'design' ) ;
#121 = FACE_OUTER_BOUND ( 'NONE', #190, .T. ) ;
#122 = PRODUCT_DEFINITION_SHAPE ( 'NONE', 'NONE',  #160 ) ;
#123 = CARTESIAN_POINT ( 'NONE',  ( 8.728703347107833388E-15, 1.563499573424979632E-33, 2.500000000000000000 ) ) ;
#124 = AXIS2_PLACEMENT_3D ( 'NONE', #41, #1, #194 ) ;
#125 = FACE_OUTER_BOUND ( 'NONE', #38, .T. ) ;
#126 = DIRECTION ( 'NONE',  ( 4.275831445896958607E-31, 1.000000000000000000, 1.224646799147353207E-16 ) ) ;
#127 = CARTESIAN_POINT ( 'NONE',  ( 1.810937715343869651E-14, -6.351914449257582387E-16, 5.186731761092286064 ) ) ;
#128 = VERTEX_POINT ( 'NONE', #264 ) ;
#129 = DIRECTION ( 'NONE',  ( 0.0000000000000000000, -1.000000000000000000, 0.0000000000000000000 ) ) ;
#130 = FACE_OUTER_BOUND ( 'NONE', #283, .T. ) ;
#131 = CIRCLE ( 'NONE', #77, 0.7499999999999970024 ) ;
#132 = AXIS2_PLACEMENT_3D ( 'NONE', #27, #217, #257 ) ;
#133 = SECURITY_CLASSIFICATION_LEVEL ( 'unclassified' ) ;
#134 = DIRECTION ( 'NONE',  ( 0.0000000000000000000, 1.000000000000000000, 0.0000000000000000000 ) ) ;
#135 = CALENDAR_DATE ( 2021, 16, 12 ) ;
#136 = FACE_OUTER_BOUND ( 'NONE', #234, .T. ) ;
#137 = DATE_AND_TIME ( #85, #100 ) ;
#138 = AXIS2_PLACEMENT_3D ( 'NONE', #247, #225, #54 ) ;
#139 =( NAMED_UNIT ( * ) SI_UNIT ( $, .STERADIAN. ) SOLID_ANGLE_UNIT ( ) );
#140 = APPROVAL ( #159, 'UNSPECIFIED' ) ;
#141 = CIRCLE ( 'NONE', #39, 0.1299999999999999489 ) ;
#142 = ORGANIZATION ( 'UNSPECIFIED', 'UNSPECIFIED', '' ) ;
#143 = ORIENTED_EDGE ( 'NONE', *, *, #279, .F. ) ;
#144 = UNCERTAINTY_MEASURE_WITH_UNIT (LENGTH_MEASURE( 1.000000000000000082E-05 ), #3, 'distance_accuracy_value', 'NONE');
#145 = ORIENTED_EDGE ( 'NONE', *, *, #66, .T. ) ;
#146 = DIRECTION ( 'NONE',  ( 4.275831445896958607E-31, 1.000000000000000000, 1.224646799147353207E-16 ) ) ;
#147 = ORIENTED_EDGE ( 'NONE', *, *, #241, .F. ) ;
#148 = CC_DESIGN_SECURITY_CLASSIFICATION ( #97, ( #186 ) ) ;
#149 = VERTEX_POINT ( 'NONE', #262 ) ;
#150 = ORIENTED_EDGE ( 'NONE', *, *, #279, .T. ) ;
#151 = ADVANCED_FACE ( 'NONE', ( #222, #130 ), #115, .T. ) ;
#152 = CARTESIAN_POINT ( 'NONE',  ( 0.0000000000000000000, 0.0000000000000000000, 0.0000000000000000000 ) ) ;
#153 = APPROVAL_STATUS ( 'not_yet_approved' ) ;
#154 = DIRECTION ( 'NONE',  ( 3.491481338843133355E-15, -1.224646799147353207E-16, 1.000000000000000000 ) ) ;
#155 = CARTESIAN_POINT ( 'NONE',  ( 1.810937715343869651E-14, -6.351914449257582387E-16, 5.186731761092286064 ) ) ;
#156 = CIRCLE ( 'NONE', #132, 0.2084999999999996856 ) ;
#157 = DIRECTION ( 'NONE',  ( 0.0000000000000000000, 1.000000000000000000, 0.0000000000000000000 ) ) ;
#158 = PERSON_AND_ORGANIZATION ( #116, #142 ) ;
#159 = APPROVAL_STATUS ( 'not_yet_approved' ) ;
#160 = PRODUCT_DEFINITION ( 'UNKNOWN', '', #186, #120 ) ;
#161 = ADVANCED_FACE ( 'NONE', ( #272 ), #11, .F. ) ;
#162 = AXIS2_PLACEMENT_3D ( 'NONE', #166, #193, #196 ) ;
#163 = EDGE_LOOP ( 'NONE', ( #260 ) ) ;
#164 = APPLICATION_CONTEXT ( 'configuration controlled 3d designs of mechanical parts and assemblies' ) ;
#165 = EDGE_LOOP ( 'NONE', ( #147 ) ) ;
#166 = CARTESIAN_POINT ( 'NONE',  ( 1.082359215041371340E-14, -3.796405077356794918E-16, 3.100000000000000089 ) ) ;
#167 = ORIENTED_EDGE ( 'NONE', *, *, #36, .F. ) ;
#168 = CC_DESIGN_APPROVAL ( #104, ( #160 ) ) ;
#169 = CARTESIAN_POINT ( 'NONE',  ( 1.127542308347002316E-14, 0.2255370868554641695, 3.229409522551256018 ) ) ;
#170 = EDGE_LOOP ( 'NONE', ( #75 ) ) ;
#171 = CARTESIAN_POINT ( 'NONE',  ( 1.047444401652940007E-13, 4.499279347985518085E-33, 30.00000000000000000 ) ) ;
#172 = CARTESIAN_POINT ( 'NONE',  ( 8.728703347107833388E-15, 1.563499573424979632E-33, 2.500000000000000000 ) ) ;
#173 = VERTEX_POINT ( 'NONE', #169 ) ;
#174 = FACE_OUTER_BOUND ( 'NONE', #62, .T. ) ;
#175 = CONICAL_SURFACE ( 'NONE', #238, 0.7499999999999970024, 0.2617993877991427465 ) ;
#176 = MECHANICAL_CONTEXT ( 'NONE', #280, 'mechanical' ) ;
#177 = DIRECTION ( 'NONE',  ( 4.275831445896958607E-31, 1.000000000000000000, 1.224646799147353207E-16 ) ) ;
#178 = COORDINATED_UNIVERSAL_TIME_OFFSET ( 1, 0, .AHEAD. ) ;
#179 = CARTESIAN_POINT ( 'NONE',  ( 1.022885281393951144E-15, -3.587798599459512911E-17, 0.2929659883941621579 ) ) ;
#180 = APPROVAL_ROLE ( '' ) ;
#181 = DIRECTION ( 'NONE',  ( 4.275831445896958607E-31, 1.000000000000000000, 1.224646799147353454E-16 ) ) ;
#182 = MANIFOLD_SOLID_BREP ( 'Corps-Déplacer/Copier1[2]', #15 ) ;
#183 = CONICAL_SURFACE ( 'NONE', #277, 0.6000000000000000888, 0.7853981633974450594 ) ;
#184 = COORDINATED_UNIVERSAL_TIME_OFFSET ( 1, 0, .AHEAD. ) ;
#185 = ADVANCED_FACE ( 'NONE', ( #82, #174 ), #9, .T. ) ;
#186 = PRODUCT_DEFINITION_FORMATION_WITH_SPECIFIED_SOURCE ( 'ANY', '', #46, .NOT_KNOWN. ) ;
#187 = EDGE_CURVE ( 'NONE', #149, #149, #141, .T. ) ;
#188 = ORIENTED_EDGE ( 'NONE', *, *, #187, .T. ) ;
#189 = AXIS2_PLACEMENT_3D ( 'NONE', #199, #154, #107 ) ;
#190 = EDGE_LOOP ( 'NONE', ( #188 ) ) ;
#191 = APPROVAL_PERSON_ORGANIZATION ( #33, #104, #72 ) ;
#192 = PRODUCT_RELATED_PRODUCT_CATEGORY ( 'detail', '', ( #46 ) ) ;
#193 = DIRECTION ( 'NONE',  ( -3.491481338843133355E-15, 1.224646799147353207E-16, -1.000000000000000000 ) ) ;
#194 = DIRECTION ( 'NONE',  ( -4.275831445896958607E-31, -1.000000000000000000, -1.224646799147353207E-16 ) ) ;
#195 = DIRECTION ( 'NONE',  ( -3.491481338843133355E-15, 1.224646799147353207E-16, -1.000000000000000000 ) ) ;
#196 = DIRECTION ( 'NONE',  ( 0.0000000000000000000, 1.000000000000000000, 0.0000000000000000000 ) ) ;
#197 = DIRECTION ( 'NONE',  ( 3.491481338843133355E-15, -1.224646799147353207E-16, 1.000000000000000000 ) ) ;
#198 = DATE_AND_TIME ( #135, #231 ) ;
#199 = CARTESIAN_POINT ( 'NONE',  ( 1.022885281393951144E-15, -3.587798599459512911E-17, 0.2929659883941621579 ) ) ;
#200 = ADVANCED_BREP_SHAPE_REPRESENTATION ( '62328', ( #74, #182, #138 ), #216 ) ;
#201 = DATE_TIME_ROLE ( 'classification_date' ) ;
#202 = DIRECTION ( 'NONE',  ( -3.491481338843133355E-15, 1.224646799147353207E-16, -1.000000000000000000 ) ) ;
#203 = PERSON_AND_ORGANIZATION ( #116, #142 ) ;
#204 = DIRECTION ( 'NONE',  ( 0.0000000000000000000, 1.000000000000000000, 0.0000000000000000000 ) ) ;
#205 = ADVANCED_FACE ( 'NONE', ( #248, #108 ), #246, .T. ) ;
#206 = AXIS2_PLACEMENT_3D ( 'NONE', #110, #195, #274 ) ;
#207 = AXIS2_PLACEMENT_3D ( 'NONE', #171, #81, #126 ) ;
#208 = DATE_TIME_ROLE ( 'creation_date' ) ;
#209 = AXIS2_PLACEMENT_3D ( 'NONE', #89, #91, #32 ) ;
#210 = CIRCLE ( 'NONE', #162, 0.2084999999999997689 ) ;
#211 = ORIENTED_EDGE ( 'NONE', *, *, #40, .T. ) ;
#212 = PLANE ( 'NONE',  #124 ) ;
#213 = ORIENTED_EDGE ( 'NONE', *, *, #66, .F. ) ;
#214 = EDGE_LOOP ( 'NONE', ( #79 ) ) ;
#215 = FACE_OUTER_BOUND ( 'NONE', #19, .T. ) ;
#216 =( GEOMETRIC_REPRESENTATION_CONTEXT ( 3 ) GLOBAL_UNCERTAINTY_ASSIGNED_CONTEXT ( ( #144 ) ) GLOBAL_UNIT_ASSIGNED_CONTEXT ( ( #3, #275, #139 ) ) REPRESENTATION_CONTEXT ( 'NONE', 'WORKASPACE' ) );
#217 = DIRECTION ( 'NONE',  ( -3.491481338843133355E-15, 1.224646799147353207E-16, -1.000000000000000000 ) ) ;
#218 = CARTESIAN_POINT ( 'NONE',  ( 1.047444401652940007E-13, -3.673940397442059178E-15, 30.00000000000000000 ) ) ;
#219 = CARTESIAN_POINT ( 'NONE',  ( 1.042207179644675275E-13, -3.655570695454848748E-15, 29.84999999999999787 ) ) ;
#220 = ADVANCED_FACE ( 'NONE', ( #253, #125 ), #73, .F. ) ;
#221 = PERSON_AND_ORGANIZATION_ROLE ( 'design_owner' ) ;
#222 = FACE_BOUND ( 'NONE', #98, .T. ) ;
#223 = CALENDAR_DATE ( 2021, 16, 12 ) ;
#224 = CARTESIAN_POINT ( 'NONE',  ( 0.0000000000000000000, 0.0000000000000000000, 0.0000000000000000000 ) ) ;
#225 = DIRECTION ( 'NONE',  ( 0.0000000000000000000, 0.0000000000000000000, 1.000000000000000000 ) ) ;
#226 = ADVANCED_FACE ( 'NONE', ( #121 ), #212, .F. ) ;
#227 = FACE_BOUND ( 'NONE', #214, .T. ) ;
#228 = PERSON_AND_ORGANIZATION ( #116, #142 ) ;
#229 = CIRCLE ( 'NONE', #206, 0.2255370868554645580 ) ;
#230 = PERSON_AND_ORGANIZATION_ROLE ( 'creator' ) ;
#231 = LOCAL_TIME ( 12, 55, 55.00000000000000000, #113 ) ;
#232 = ADVANCED_FACE ( 'NONE', ( #215 ), #24, .F. ) ;
#233 = ORIENTED_EDGE ( 'NONE', *, *, #87, .T. ) ;
#234 = EDGE_LOOP ( 'NONE', ( #150 ) ) ;
#235 = CARTESIAN_POINT ( 'NONE',  ( 1.082359215041371182E-14, -4.336808689942017736E-16, 3.099999999999999645 ) ) ;
#236 = ORIENTED_EDGE ( 'NONE', *, *, #36, .T. ) ;
#237 = EDGE_LOOP ( 'NONE', ( #2 ) ) ;
#238 = AXIS2_PLACEMENT_3D ( 'NONE', #127, #28, #129 ) ;
#239 = FACE_OUTER_BOUND ( 'NONE', #165, .T. ) ;
#240 = FACE_BOUND ( 'NONE', #237, .T. ) ;
#241 = EDGE_CURVE ( 'NONE', #128, #128, #156, .T. ) ;
#242 = CC_DESIGN_DATE_AND_TIME_ASSIGNMENT ( #271, #201, ( #97 ) ) ;
#243 = CALENDAR_DATE ( 2021, 16, 12 ) ;
#244 = DIRECTION ( 'NONE',  ( -3.491481338843133355E-15, 1.224646799147353207E-16, -1.000000000000000000 ) ) ;
#245 = APPROVAL_DATE_TIME ( #198, #104 ) ;
#246 = CYLINDRICAL_SURFACE ( 'NONE', #254, 0.7499999999999984457 ) ;
#247 = CARTESIAN_POINT ( 'NONE',  ( 0.0000000000000000000, 0.0000000000000000000, 0.0000000000000000000 ) ) ;
#248 = FACE_OUTER_BOUND ( 'NONE', #60, .T. ) ;
#249 = APPROVAL_ROLE ( '' ) ;
#250 = PERSON_AND_ORGANIZATION ( #116, #142 ) ;
#251 = AXIS2_PLACEMENT_3D ( 'NONE', #219, #268, #26 ) ;
#252 = APPROVAL_PERSON_ORGANIZATION ( #158, #20, #249 ) ;
#253 = FACE_OUTER_BOUND ( 'NONE', #282, .T. ) ;
#254 = AXIS2_PLACEMENT_3D ( 'NONE', #224, #202, #181 ) ;
#255 = APPROVAL_PERSON_ORGANIZATION ( #203, #140, #180 ) ;
#256 = EDGE_LOOP ( 'NONE', ( #167 ) ) ;
#257 = DIRECTION ( 'NONE',  ( 0.0000000000000000000, 1.000000000000000000, 0.0000000000000000000 ) ) ;
#258 = CIRCLE ( 'NONE', #35, 0.2084999999999994080 ) ;
#259 = VERTEX_POINT ( 'NONE', #59 ) ;
#260 = ORIENTED_EDGE ( 'NONE', *, *, #105, .F. ) ;
#261 = ADVANCED_FACE ( 'NONE', ( #25 ), #106, .T. ) ;
#262 = CARTESIAN_POINT ( 'NONE',  ( -9.463679131915808972E-32, 0.1299999999999999489, -2.710505431213761085E-17 ) ) ;
#263 = ORIENTED_EDGE ( 'NONE', *, *, #87, .F. ) ;
#264 = CARTESIAN_POINT ( 'NONE',  ( 8.728703347107833388E-15, 0.2084999999999993803, 2.500000000000000000 ) ) ;
#265 = DIRECTION ( 'NONE',  ( -4.275831445896958607E-31, -1.000000000000000000, -1.224646799147353207E-16 ) ) ;
#266 = CC_DESIGN_PERSON_AND_ORGANIZATION_ASSIGNMENT ( #276, #221, ( #46 ) ) ;
#267 = VERTEX_POINT ( 'NONE', #101 ) ;
#268 = DIRECTION ( 'NONE',  ( -3.491481338843133355E-15, 1.224646799147353207E-16, -1.000000000000000000 ) ) ;
#269 = APPLICATION_PROTOCOL_DEFINITION ( 'international standard', 'config_control_design', 1994, #164 ) ;
#270 = CARTESIAN_POINT ( 'NONE',  ( -1.502226001158185328E-31, 5.269099517867863731E-33, -4.302546270105320427E-17 ) ) ;
#271 = DATE_AND_TIME ( #71, #18 ) ;
#272 = FACE_OUTER_BOUND ( 'NONE', #170, .T. ) ;
#273 = SHAPE_DEFINITION_REPRESENTATION ( #122, #200 ) ;
#274 = DIRECTION ( 'NONE',  ( 0.0000000000000000000, 1.000000000000000000, 0.0000000000000000000 ) ) ;
#275 =( NAMED_UNIT ( * ) PLANE_ANGLE_UNIT ( ) SI_UNIT ( $, .RADIAN. ) );
#276 = PERSON_AND_ORGANIZATION ( #116, #142 ) ;
#277 = AXIS2_PLACEMENT_3D ( 'NONE', #112, #51, #49 ) ;
#278 = LOCAL_TIME ( 12, 55, 55.00000000000000000, #184 ) ;
#279 = EDGE_CURVE ( 'NONE', #61, #61, #210, .T. ) ;
#280 = APPLICATION_CONTEXT ( 'configuration controlled 3d designs of mechanical parts and assemblies' ) ;
#281 = CIRCLE ( 'NONE', #55, 0.6000000000000000888 ) ;
#282 = EDGE_LOOP ( 'NONE', ( #143 ) ) ;
#283 = EDGE_LOOP ( 'NONE', ( #145 ) ) ;
ENDSEC;
END-ISO-10303-21;
