ISO-10303-21;
HEADER;
FILE_DESCRIPTION (( 'STEP AP203' ),
    '1' );
FILE_NAME ('62327.step',
    '2021-12-16T10:16:18',
    ( '' ),
    ( '' ),
    'SwSTEP 2.0',
    'SolidWorks 2019',
    '' );
FILE_SCHEMA (( 'CONFIG_CONTROL_DESIGN' ));
ENDSEC;

DATA;
#1 = CARTESIAN_POINT ( 'NONE',  ( 1.047444401652940007E-13, 4.499279347985518085E-33, 30.00000000000000000 ) ) ;
#2 = CIRCLE ( 'NONE', #125, 0.7499999999999998890 ) ;
#3 = CARTESIAN_POINT ( 'NONE',  ( 1.022885281393958047E-15, 0.2084999999999998521, 0.2929659883941641563 ) ) ;
#4 = DIRECTION ( 'NONE',  ( -4.275831445896958607E-31, -1.000000000000000000, -1.224646799147353207E-16 ) ) ;
#5 = DIRECTION ( 'NONE',  ( -3.491481338843133355E-15, 1.224646799147353207E-16, -1.000000000000000000 ) ) ;
#6 = APPLICATION_PROTOCOL_DEFINITION ( 'international standard', 'config_control_design', 1994, #21 ) ;
#7 = PERSON_AND_ORGANIZATION ( #191, #253 ) ;
#8 = ORIENTED_EDGE ( 'NONE', *, *, #24, .T. ) ;
#9 = AXIS2_PLACEMENT_3D ( 'NONE', #243, #39, #74 ) ;
#10 = APPROVAL_DATE_TIME ( #157, #155 ) ;
#11 = EDGE_LOOP ( 'NONE', ( #232 ) ) ;
#12 = ORIENTED_EDGE ( 'NONE', *, *, #35, .F. ) ;
#13 = DIRECTION ( 'NONE',  ( -3.491481338843133355E-15, 1.224646799147353207E-16, -1.000000000000000000 ) ) ;
#14 = DIRECTION ( 'NONE',  ( -3.491481338843133355E-15, 1.224646799147353207E-16, -1.000000000000000000 ) ) ;
#15 = DIRECTION ( 'NONE',  ( -3.491481338843133355E-15, 1.224646799147353207E-16, -1.000000000000000000 ) ) ;
#16 = FACE_OUTER_BOUND ( 'NONE', #207, .T. ) ;
#17 = EDGE_CURVE ( 'NONE', #203, #203, #52, .T. ) ;
#18 = APPLICATION_PROTOCOL_DEFINITION ( 'international standard', 'config_control_design', 1994, #189 ) ;
#19 = ADVANCED_BREP_SHAPE_REPRESENTATION ( '62327', ( #261, #77, #9 ), #205 ) ;
#20 = PLANE ( 'NONE',  #251 ) ;
#21 = APPLICATION_CONTEXT ( 'configuration controlled 3d designs of mechanical parts and assemblies' ) ;
#22 = CARTESIAN_POINT ( 'NONE',  ( 9.529682414048458058E-15, 0.2255370868554648633, 2.729409522551256462 ) ) ;
#23 = CONICAL_SURFACE ( 'NONE', #32, 0.6000000000000000888, 0.7853981633974450594 ) ;
#24 = EDGE_CURVE ( 'NONE', #43, #43, #45, .T. ) ;
#25 = SHAPE_DEFINITION_REPRESENTATION ( #64, #19 ) ;
#26 = ORIENTED_EDGE ( 'NONE', *, *, #35, .T. ) ;
#27 = DATE_AND_TIME ( #47, #81 ) ;
#28 = ORIENTED_EDGE ( 'NONE', *, *, #30, .F. ) ;
#29 = APPROVAL_ROLE ( '' ) ;
#30 = EDGE_CURVE ( 'NONE', #202, #202, #193, .T. ) ;
#31 = PERSON_AND_ORGANIZATION_ROLE ( 'creator' ) ;
#32 = AXIS2_PLACEMENT_3D ( 'NONE', #134, #41, #270 ) ;
#33 = DIRECTION ( 'NONE',  ( 4.275831445896958607E-31, 1.000000000000000000, 1.224646799147353207E-16 ) ) ;
#34 = CARTESIAN_POINT ( 'NONE',  ( 1.636363648401712667E-14, -5.739591049683903688E-16, 4.686731761092284287 ) ) ;
#35 = EDGE_CURVE ( 'NONE', #266, #266, #86, .T. ) ;
#36 = DIRECTION ( 'NONE',  ( 3.491481338843133355E-15, -1.224646799147353207E-16, 1.000000000000000000 ) ) ;
#37 = CARTESIAN_POINT ( 'NONE',  ( 1.022885281393958047E-15, -3.587798599459537562E-17, 0.2929659883941641563 ) ) ;
#38 = CARTESIAN_POINT ( 'NONE',  ( 1.042207179644675275E-13, 0.7499999999999962252, 29.84999999999999787 ) ) ;
#39 = DIRECTION ( 'NONE',  ( 0.0000000000000000000, 0.0000000000000000000, 1.000000000000000000 ) ) ;
#40 = LOCAL_TIME ( 11, 16, 18.00000000000000000, #99 ) ;
#41 = DIRECTION ( 'NONE',  ( -3.491481338843133355E-15, 1.224646799147353207E-16, -1.000000000000000000 ) ) ;
#42 = FACE_OUTER_BOUND ( 'NONE', #158, .T. ) ;
#43 = VERTEX_POINT ( 'NONE', #176 ) ;
#44 = ADVANCED_FACE ( 'NONE', ( #215, #257 ), #246, .T. ) ;
#45 = CIRCLE ( 'NONE', #154, 0.1300000000000000322 ) ;
#46 = COORDINATED_UNIVERSAL_TIME_OFFSET ( 1, 0, .AHEAD. ) ;
#47 = CALENDAR_DATE ( 2021, 16, 12 ) ;
#48 = EDGE_LOOP ( 'NONE', ( #248 ) ) ;
#49 = ADVANCED_FACE ( 'NONE', ( #148, #234 ), #219, .T. ) ;
#50 = APPROVAL_ROLE ( '' ) ;
#51 = EDGE_LOOP ( 'NONE', ( #28 ) ) ;
#52 = CIRCLE ( 'NONE', #204, 0.2085000000000001852 ) ;
#53 = CIRCLE ( 'NONE', #230, 0.2255370868554651964 ) ;
#54 = DATE_TIME_ROLE ( 'classification_date' ) ;
#55 = EDGE_LOOP ( 'NONE', ( #247 ) ) ;
#56 = DIRECTION ( 'NONE',  ( 0.0000000000000000000, 1.000000000000000000, 0.0000000000000000000 ) ) ;
#57 = AXIS2_PLACEMENT_3D ( 'NONE', #130, #144, #192 ) ;
#58 = DIRECTION ( 'NONE',  ( -3.491481338843133355E-15, 1.224646799147353207E-16, -1.000000000000000000 ) ) ;
#59 = DIRECTION ( 'NONE',  ( 3.491481338843133355E-15, -1.224646799147353207E-16, 1.000000000000000000 ) ) ;
#60 = CARTESIAN_POINT ( 'NONE',  ( 6.982962677686266711E-15, 1.563499573424983737E-33, 2.000000000000000000 ) ) ;
#61 = CIRCLE ( 'NONE', #73, 0.2085000000000001019 ) ;
#62 = DIRECTION ( 'NONE',  ( -3.491481338843133355E-15, 1.224646799147353207E-16, -1.000000000000000000 ) ) ;
#63 = VERTEX_POINT ( 'NONE', #3 ) ;
#64 = PRODUCT_DEFINITION_SHAPE ( 'NONE', 'NONE',  #265 ) ;
#65 = DIRECTION ( 'NONE',  ( -3.491481338843133355E-15, 1.224646799147353207E-16, -1.000000000000000000 ) ) ;
#66 = PLANE ( 'NONE',  #269 ) ;
#67 = AXIS2_PLACEMENT_3D ( 'NONE', #60, #279, #87 ) ;
#68 =( NAMED_UNIT ( * ) PLANE_ANGLE_UNIT ( ) SI_UNIT ( $, .RADIAN. ) );
#69 =( LENGTH_UNIT ( ) NAMED_UNIT ( * ) SI_UNIT ( .MILLI., .METRE. ) );
#70 = PERSON_AND_ORGANIZATION ( #191, #253 ) ;
#71 = EDGE_LOOP ( 'NONE', ( #75 ) ) ;
#72 = CLOSED_SHELL ( 'NONE', ( #150, #206, #132, #44, #169, #273, #217 ) ) ;
#73 = AXIS2_PLACEMENT_3D ( 'NONE', #110, #188, #220 ) ;
#74 = DIRECTION ( 'NONE',  ( 1.000000000000000000, 0.0000000000000000000, 0.0000000000000000000 ) ) ;
#75 = ORIENTED_EDGE ( 'NONE', *, *, #226, .F. ) ;
#76 = APPROVAL ( #210, 'UNSPECIFIED' ) ;
#77 = MANIFOLD_SOLID_BREP ( 'Corps-Déplacer/Copier1[2]', #228 ) ;
#78 = APPROVAL_ROLE ( '' ) ;
#79 = COORDINATED_UNIVERSAL_TIME_OFFSET ( 1, 0, .AHEAD. ) ;
#80 = ORIENTED_EDGE ( 'NONE', *, *, #88, .F. ) ;
#81 = LOCAL_TIME ( 11, 16, 18.00000000000000000, #122 ) ;
#82 = PERSON_AND_ORGANIZATION_ROLE ( 'design_supplier' ) ;
#83 = EDGE_LOOP ( 'NONE', ( #85 ) ) ;
#84 = FACE_OUTER_BOUND ( 'NONE', #211, .T. ) ;
#85 = ORIENTED_EDGE ( 'NONE', *, *, #283, .F. ) ;
#86 = CIRCLE ( 'NONE', #57, 0.6000000000000000888 ) ;
#87 = DIRECTION ( 'NONE',  ( -4.275831445896958607E-31, -1.000000000000000000, -1.224646799147353207E-16 ) ) ;
#88 = EDGE_CURVE ( 'NONE', #63, #63, #138, .T. ) ;
#89 = DIRECTION ( 'NONE',  ( 4.275831445896958607E-31, 1.000000000000000000, 1.224646799147353207E-16 ) ) ;
#90 = DESIGN_CONTEXT ( 'detailed design', #21, 'design' ) ;
#91 = FACE_OUTER_BOUND ( 'NONE', #55, .T. ) ;
#92 = CC_DESIGN_APPROVAL ( #76, ( #244 ) ) ;
#93 = CARTESIAN_POINT ( 'NONE',  ( 1.047444401652940007E-13, 0.5999999999999963141, 30.00000000000000000 ) ) ;
#94 = DIRECTION ( 'NONE',  ( -4.275831445896958607E-31, -1.000000000000000000, -1.224646799147353207E-16 ) ) ;
#95 = PLANE ( 'NONE',  #258 ) ;
#96 = APPROVAL_PERSON_ORGANIZATION ( #7, #214, #50 ) ;
#97 = CIRCLE ( 'NONE', #175, 0.2085000000000001019 ) ;
#98 = DIRECTION ( 'NONE',  ( -3.491481338843133355E-15, 1.224646799147353207E-16, -1.000000000000000000 ) ) ;
#99 = COORDINATED_UNIVERSAL_TIME_OFFSET ( 1, 0, .AHEAD. ) ;
#100 = APPROVAL_DATE_TIME ( #27, #214 ) ;
#101 = ORIENTED_EDGE ( 'NONE', *, *, #17, .F. ) ;
#102 = AXIS2_PLACEMENT_3D ( 'NONE', #167, #58, #218 ) ;
#103 = SECURITY_CLASSIFICATION_LEVEL ( 'unclassified' ) ;
#104 = PERSON_AND_ORGANIZATION ( #191, #253 ) ;
#105 = CARTESIAN_POINT ( 'NONE',  ( 0.0000000000000000000, 0.0000000000000000000, 0.0000000000000000000 ) ) ;
#106 = DIRECTION ( 'NONE',  ( -3.491481338843133355E-15, 1.224646799147353207E-16, -1.000000000000000000 ) ) ;
#107 = EDGE_CURVE ( 'NONE', #221, #221, #61, .T. ) ;
#108 = CARTESIAN_POINT ( 'NONE',  ( 1.042207179644675275E-13, -3.655570695454848748E-15, 29.84999999999999787 ) ) ;
#109 = PRODUCT ( '62327', '62327', '', ( #275 ) ) ;
#110 = CARTESIAN_POINT ( 'NONE',  ( 6.982962677686266711E-15, -2.449293598294706414E-16, 2.000000000000000000 ) ) ;
#111 = CARTESIAN_POINT ( 'NONE',  ( 0.0000000000000000000, 0.0000000000000000000, 0.0000000000000000000 ) ) ;
#112 = CC_DESIGN_PERSON_AND_ORGANIZATION_ASSIGNMENT ( #186, #249, ( #244 ) ) ;
#113 = CC_DESIGN_SECURITY_CLASSIFICATION ( #244, ( #166 ) ) ;
#114 =( NAMED_UNIT ( * ) SI_UNIT ( $, .STERADIAN. ) SOLID_ANGLE_UNIT ( ) );
#115 = CARTESIAN_POINT ( 'NONE',  ( 1.636363648401712667E-14, 0.7499999999999963363, 4.686731761092284287 ) ) ;
#116 = DIRECTION ( 'NONE',  ( 4.275831445896958607E-31, 1.000000000000000000, 1.224646799147353207E-16 ) ) ;
#117 = CC_DESIGN_PERSON_AND_ORGANIZATION_ASSIGNMENT ( #104, #82, ( #166 ) ) ;
#118 = AXIS2_PLACEMENT_3D ( 'NONE', #37, #36, #197 ) ;
#119 = CALENDAR_DATE ( 2021, 16, 12 ) ;
#120 = EDGE_LOOP ( 'NONE', ( #165 ) ) ;
#121 = EDGE_LOOP ( 'NONE', ( #143 ) ) ;
#122 = COORDINATED_UNIVERSAL_TIME_OFFSET ( 1, 0, .AHEAD. ) ;
#123 = CALENDAR_DATE ( 2021, 16, 12 ) ;
#124 = ORIENTED_EDGE ( 'NONE', *, *, #127, .F. ) ;
#125 = AXIS2_PLACEMENT_3D ( 'NONE', #108, #106, #194 ) ;
#126 = CARTESIAN_POINT ( 'NONE',  ( -3.192661096687096168E-32, 1.119834767358553364E-33, -9.144144810881193788E-18 ) ) ;
#127 = EDGE_CURVE ( 'NONE', #225, #225, #2, .T. ) ;
#128 = FACE_BOUND ( 'NONE', #48, .T. ) ;
#129 = AXIS2_PLACEMENT_3D ( 'NONE', #131, #14, #56 ) ;
#130 = CARTESIAN_POINT ( 'NONE',  ( 1.047444401652940007E-13, -3.673940397442059178E-15, 30.00000000000000000 ) ) ;
#131 = CARTESIAN_POINT ( 'NONE',  ( 1.636363648401712667E-14, -5.739591049683903688E-16, 4.686731761092284287 ) ) ;
#132 = ADVANCED_FACE ( 'NONE', ( #84, #236 ), #151, .F. ) ;
#133 = FACE_OUTER_BOUND ( 'NONE', #212, .T. ) ;
#134 = CARTESIAN_POINT ( 'NONE',  ( 1.047444401652940007E-13, -3.673940397442059178E-15, 30.00000000000000000 ) ) ;
#135 = CC_DESIGN_PERSON_AND_ORGANIZATION_ASSIGNMENT ( #208, #31, ( #265 ) ) ;
#136 = CARTESIAN_POINT ( 'NONE',  ( 9.077851480992146724E-15, 0.2084999999999998521, 2.600000000000000089 ) ) ;
#137 = FACE_BOUND ( 'NONE', #276, .T. ) ;
#138 = CIRCLE ( 'NONE', #102, 0.2084999999999998799 ) ;
#139 = DATE_AND_TIME ( #254, #40 ) ;
#140 = AXIS2_PLACEMENT_3D ( 'NONE', #34, #59, #277 ) ;
#141 = DATE_AND_TIME ( #160, #213 ) ;
#142 = ORIENTED_EDGE ( 'NONE', *, *, #107, .T. ) ;
#143 = ORIENTED_EDGE ( 'NONE', *, *, #283, .T. ) ;
#144 = DIRECTION ( 'NONE',  ( -3.491481338843133355E-15, 1.224646799147353207E-16, -1.000000000000000000 ) ) ;
#145 = EDGE_LOOP ( 'NONE', ( #80 ) ) ;
#146 = DIRECTION ( 'NONE',  ( 4.275831445896958607E-31, 1.000000000000000000, 1.224646799147353454E-16 ) ) ;
#147 = FACE_OUTER_BOUND ( 'NONE', #51, .T. ) ;
#148 = FACE_OUTER_BOUND ( 'NONE', #145, .T. ) ;
#149 = CARTESIAN_POINT ( 'NONE',  ( 6.982962677686266711E-15, 0.2084999999999998521, 2.000000000000000000 ) ) ;
#150 = ADVANCED_FACE ( 'NONE', ( #190 ), #168, .F. ) ;
#151 = TOROIDAL_SURFACE ( 'NONE', #274, 0.7085000000000002407, 0.5000000000000000000 ) ;
#152 = DIRECTION ( 'NONE',  ( 0.0000000000000000000, 1.000000000000000000, 0.0000000000000000000 ) ) ;
#153 = APPROVAL_STATUS ( 'not_yet_approved' ) ;
#154 = AXIS2_PLACEMENT_3D ( 'NONE', #126, #62, #33 ) ;
#155 = APPROVAL ( #153, 'UNSPECIFIED' ) ;
#156 = EDGE_LOOP ( 'NONE', ( #180 ) ) ;
#157 = DATE_AND_TIME ( #119, #264 ) ;
#158 = EDGE_LOOP ( 'NONE', ( #124 ) ) ;
#159 = CC_DESIGN_DATE_AND_TIME_ASSIGNMENT ( #229, #181, ( #265 ) ) ;
#160 = CALENDAR_DATE ( 2021, 16, 12 ) ;
#161 = EDGE_LOOP ( 'NONE', ( #8 ) ) ;
#162 = CC_DESIGN_APPROVAL ( #214, ( #265 ) ) ;
#163 = PERSON_AND_ORGANIZATION_ROLE ( 'design_owner' ) ;
#164 = DIRECTION ( 'NONE',  ( -3.491481338843133355E-15, 1.224646799147353207E-16, -1.000000000000000000 ) ) ;
#165 = ORIENTED_EDGE ( 'NONE', *, *, #107, .F. ) ;
#166 = PRODUCT_DEFINITION_FORMATION_WITH_SPECIFIED_SOURCE ( 'ANY', '', #109, .NOT_KNOWN. ) ;
#167 = CARTESIAN_POINT ( 'NONE',  ( 1.022885281393958047E-15, -3.587798599459537562E-17, 0.2929659883941641563 ) ) ;
#168 = PLANE ( 'NONE',  #67 ) ;
#169 = ADVANCED_FACE ( 'NONE', ( #147, #16 ), #239, .T. ) ;
#170 = CYLINDRICAL_SURFACE ( 'NONE', #222, 0.2085000000000001297 ) ;
#171 = APPROVAL_PERSON_ORGANIZATION ( #178, #76, #29 ) ;
#172 = VERTEX_POINT ( 'NONE', #22 ) ;
#173 = FACE_OUTER_BOUND ( 'NONE', #71, .T. ) ;
#174 = CARTESIAN_POINT ( 'NONE',  ( -1.596330548343548084E-32, 5.599173836792766820E-34, -4.572072405440596894E-18 ) ) ;
#175 = AXIS2_PLACEMENT_3D ( 'NONE', #268, #98, #152 ) ;
#176 = CARTESIAN_POINT ( 'NONE',  ( 2.365919782978951696E-32, 0.1300000000000000322, 6.776263578034402713E-18 ) ) ;
#177 = DIRECTION ( 'NONE',  ( 3.491481338843133355E-15, -1.224646799147353207E-16, 1.000000000000000000 ) ) ;
#178 = PERSON_AND_ORGANIZATION ( #191, #253 ) ;
#179 = EDGE_LOOP ( 'NONE', ( #142 ) ) ;
#180 = ORIENTED_EDGE ( 'NONE', *, *, #226, .T. ) ;
#181 = DATE_TIME_ROLE ( 'creation_date' ) ;
#182 = EDGE_LOOP ( 'NONE', ( #185 ) ) ;
#183 = ADVANCED_FACE ( 'NONE', ( #128, #238 ), #200, .T. ) ;
#184 = COORDINATED_UNIVERSAL_TIME_OFFSET ( 1, 0, .AHEAD. ) ;
#185 = ORIENTED_EDGE ( 'NONE', *, *, #88, .T. ) ;
#186 = PERSON_AND_ORGANIZATION ( #191, #253 ) ;
#187 = LOCAL_TIME ( 11, 16, 18.00000000000000000, #46 ) ;
#188 = DIRECTION ( 'NONE',  ( -3.491481338843133355E-15, 1.224646799147353207E-16, -1.000000000000000000 ) ) ;
#189 = APPLICATION_CONTEXT ( 'configuration controlled 3d designs of mechanical parts and assemblies' ) ;
#190 = FACE_OUTER_BOUND ( 'NONE', #179, .T. ) ;
#191 = PERSON ( 'UNSPECIFIED', 'UNSPECIFIED', 'UNSPECIFIED', ('UNSPECIFIED'), ('UNSPECIFIED'), ('UNSPECIFIED') ) ;
#192 = DIRECTION ( 'NONE',  ( 0.0000000000000000000, 1.000000000000000000, 0.0000000000000000000 ) ) ;
#193 = CIRCLE ( 'NONE', #129, 0.7499999999999968914 ) ;
#194 = DIRECTION ( 'NONE',  ( 0.0000000000000000000, 1.000000000000000000, 0.0000000000000000000 ) ) ;
#195 = UNCERTAINTY_MEASURE_WITH_UNIT (LENGTH_MEASURE( 1.000000000000000082E-05 ), #69, 'distance_accuracy_value', 'NONE');
#196 = CC_DESIGN_DATE_AND_TIME_ASSIGNMENT ( #139, #54, ( #244 ) ) ;
#197 = DIRECTION ( 'NONE',  ( 0.0000000000000000000, -1.000000000000000000, 0.0000000000000000000 ) ) ;
#198 = DIRECTION ( 'NONE',  ( 3.491481338843133355E-15, -1.224646799147353207E-16, 1.000000000000000000 ) ) ;
#199 = PRODUCT_RELATED_PRODUCT_CATEGORY ( 'detail', '', ( #109 ) ) ;
#200 = CONICAL_SURFACE ( 'NONE', #118, 0.2084999999999998799, 0.2617993877991427465 ) ;
#201 = CARTESIAN_POINT ( 'NONE',  ( 6.982962677686266711E-15, 0.2084999999999998521, 2.000000000000000000 ) ) ;
#202 = VERTEX_POINT ( 'NONE', #115 ) ;
#203 = VERTEX_POINT ( 'NONE', #136 ) ;
#204 = AXIS2_PLACEMENT_3D ( 'NONE', #216, #260, #263 ) ;
#205 =( GEOMETRIC_REPRESENTATION_CONTEXT ( 3 ) GLOBAL_UNCERTAINTY_ASSIGNED_CONTEXT ( ( #195 ) ) GLOBAL_UNIT_ASSIGNED_CONTEXT ( ( #69, #68, #114 ) ) REPRESENTATION_CONTEXT ( 'NONE', 'WORKASPACE' ) );
#206 = ADVANCED_FACE ( 'NONE', ( #282, #91 ), #170, .T. ) ;
#207 = EDGE_LOOP ( 'NONE', ( #250 ) ) ;
#208 = PERSON_AND_ORGANIZATION ( #191, #253 ) ;
#209 = PERSON_AND_ORGANIZATION ( #191, #253 ) ;
#210 = APPROVAL_STATUS ( 'not_yet_approved' ) ;
#211 = EDGE_LOOP ( 'NONE', ( #101 ) ) ;
#212 = EDGE_LOOP ( 'NONE', ( #12 ) ) ;
#213 = LOCAL_TIME ( 11, 16, 18.00000000000000000, #184 ) ;
#214 = APPROVAL ( #252, 'UNSPECIFIED' ) ;
#215 = FACE_BOUND ( 'NONE', #83, .T. ) ;
#216 = CARTESIAN_POINT ( 'NONE',  ( 9.077851480992146724E-15, -3.184081677783118191E-16, 2.600000000000000089 ) ) ;
#217 = ADVANCED_FACE ( 'NONE', ( #133 ), #66, .F. ) ;
#218 = DIRECTION ( 'NONE',  ( 0.0000000000000000000, 1.000000000000000000, 0.0000000000000000000 ) ) ;
#219 = CYLINDRICAL_SURFACE ( 'NONE', #280, 0.2084999999999999909 ) ;
#220 = DIRECTION ( 'NONE',  ( 0.0000000000000000000, 1.000000000000000000, 0.0000000000000000000 ) ) ;
#221 = VERTEX_POINT ( 'NONE', #149 ) ;
#222 = AXIS2_PLACEMENT_3D ( 'NONE', #105, #164, #256 ) ;
#223 = DIRECTION ( 'NONE',  ( 0.0000000000000000000, 1.000000000000000000, 0.0000000000000000000 ) ) ;
#224 = VERTEX_POINT ( 'NONE', #201 ) ;
#225 = VERTEX_POINT ( 'NONE', #38 ) ;
#226 = EDGE_CURVE ( 'NONE', #224, #224, #97, .T. ) ;
#227 = APPROVAL_PERSON_ORGANIZATION ( #209, #155, #78 ) ;
#228 = CLOSED_SHELL ( 'NONE', ( #237, #183, #49, #255 ) ) ;
#229 = DATE_AND_TIME ( #123, #187 ) ;
#230 = AXIS2_PLACEMENT_3D ( 'NONE', #242, #65, #223 ) ;
#231 = APPROVAL_DATE_TIME ( #141, #76 ) ;
#232 = ORIENTED_EDGE ( 'NONE', *, *, #30, .T. ) ;
#233 = CC_DESIGN_PERSON_AND_ORGANIZATION_ASSIGNMENT ( #70, #163, ( #109 ) ) ;
#234 = FACE_OUTER_BOUND ( 'NONE', #156, .T. ) ;
#235 = CC_DESIGN_APPROVAL ( #155, ( #166 ) ) ;
#236 = FACE_OUTER_BOUND ( 'NONE', #121, .T. ) ;
#237 = ADVANCED_FACE ( 'NONE', ( #267 ), #95, .F. ) ;
#238 = FACE_OUTER_BOUND ( 'NONE', #182, .T. ) ;
#239 = CYLINDRICAL_SURFACE ( 'NONE', #240, 0.7499999999999983347 ) ;
#240 = AXIS2_PLACEMENT_3D ( 'NONE', #278, #241, #146 ) ;
#241 = DIRECTION ( 'NONE',  ( -3.491481338843133355E-15, 1.224646799147353207E-16, -1.000000000000000000 ) ) ;
#242 = CARTESIAN_POINT ( 'NONE',  ( 9.529682414048458058E-15, -3.342562635354701785E-16, 2.729409522551256462 ) ) ;
#243 = CARTESIAN_POINT ( 'NONE',  ( 0.0000000000000000000, 0.0000000000000000000, 0.0000000000000000000 ) ) ;
#244 = SECURITY_CLASSIFICATION ( '', '', #103 ) ;
#245 = CARTESIAN_POINT ( 'NONE',  ( 6.982962677686266711E-15, 1.563499573424983737E-33, 2.000000000000000000 ) ) ;
#246 = CONICAL_SURFACE ( 'NONE', #140, 0.7499999999999968914, 0.2617993877991427465 ) ;
#247 = ORIENTED_EDGE ( 'NONE', *, *, #17, .T. ) ;
#248 = ORIENTED_EDGE ( 'NONE', *, *, #24, .F. ) ;
#249 = PERSON_AND_ORGANIZATION_ROLE ( 'classification_officer' ) ;
#250 = ORIENTED_EDGE ( 'NONE', *, *, #127, .T. ) ;
#251 = AXIS2_PLACEMENT_3D ( 'NONE', #245, #198, #4 ) ;
#252 = APPROVAL_STATUS ( 'not_yet_approved' ) ;
#253 = ORGANIZATION ( 'UNSPECIFIED', 'UNSPECIFIED', '' ) ;
#254 = CALENDAR_DATE ( 2021, 16, 12 ) ;
#255 = ADVANCED_FACE ( 'NONE', ( #173 ), #20, .T. ) ;
#256 = DIRECTION ( 'NONE',  ( 4.275831445896958607E-31, 1.000000000000000000, 1.224646799147353207E-16 ) ) ;
#257 = FACE_OUTER_BOUND ( 'NONE', #11, .T. ) ;
#258 = AXIS2_PLACEMENT_3D ( 'NONE', #174, #177, #94 ) ;
#259 = CC_DESIGN_PERSON_AND_ORGANIZATION_ASSIGNMENT ( #271, #272, ( #166 ) ) ;
#260 = DIRECTION ( 'NONE',  ( -3.491481338843133355E-15, 1.224646799147353207E-16, -1.000000000000000000 ) ) ;
#261 = MANIFOLD_SOLID_BREP ( 'Corps-Déplacer/Copier1[1]', #72 ) ;
#262 = DIRECTION ( 'NONE',  ( 4.275831445896958607E-31, 1.000000000000000000, 1.224646799147353207E-16 ) ) ;
#263 = DIRECTION ( 'NONE',  ( 0.0000000000000000000, 1.000000000000000000, 0.0000000000000000000 ) ) ;
#264 = LOCAL_TIME ( 11, 16, 18.00000000000000000, #79 ) ;
#265 = PRODUCT_DEFINITION ( 'UNKNOWN', '', #166, #90 ) ;
#266 = VERTEX_POINT ( 'NONE', #93 ) ;
#267 = FACE_OUTER_BOUND ( 'NONE', #161, .T. ) ;
#268 = CARTESIAN_POINT ( 'NONE',  ( 6.982962677686266711E-15, -2.449293598294706414E-16, 2.000000000000000000 ) ) ;
#269 = AXIS2_PLACEMENT_3D ( 'NONE', #1, #5, #116 ) ;
#270 = DIRECTION ( 'NONE',  ( 0.0000000000000000000, 1.000000000000000000, 0.0000000000000000000 ) ) ;
#271 = PERSON_AND_ORGANIZATION ( #191, #253 ) ;
#272 = PERSON_AND_ORGANIZATION_ROLE ( 'creator' ) ;
#273 = ADVANCED_FACE ( 'NONE', ( #42, #137 ), #23, .T. ) ;
#274 = AXIS2_PLACEMENT_3D ( 'NONE', #281, #15, #89 ) ;
#275 = MECHANICAL_CONTEXT ( 'NONE', #189, 'mechanical' ) ;
#276 = EDGE_LOOP ( 'NONE', ( #26 ) ) ;
#277 = DIRECTION ( 'NONE',  ( 0.0000000000000000000, -1.000000000000000000, 0.0000000000000000000 ) ) ;
#278 = CARTESIAN_POINT ( 'NONE',  ( 0.0000000000000000000, 0.0000000000000000000, 0.0000000000000000000 ) ) ;
#279 = DIRECTION ( 'NONE',  ( 3.491481338843133355E-15, -1.224646799147353207E-16, 1.000000000000000000 ) ) ;
#280 = AXIS2_PLACEMENT_3D ( 'NONE', #111, #13, #262 ) ;
#281 = CARTESIAN_POINT ( 'NONE',  ( 9.077851480992146724E-15, -3.252606517456513302E-16, 2.600000000000000089 ) ) ;
#282 = FACE_OUTER_BOUND ( 'NONE', #120, .T. ) ;
#283 = EDGE_CURVE ( 'NONE', #172, #172, #53, .T. ) ;
ENDSEC;
END-ISO-10303-21;
