ISO-10303-21;
HEADER;
FILE_DESCRIPTION (( 'STEP AP203' ),
    '1' );
FILE_NAME ('62326.step',
    '2021-12-16T10:16:18',
    ( '' ),
    ( '' ),
    'SwSTEP 2.0',
    'SolidWorks 2019',
    '' );
FILE_SCHEMA (( 'CONFIG_CONTROL_DESIGN' ));
ENDSEC;

DATA;
#1 = FACE_OUTER_BOUND ( 'NONE', #104, .T. ) ;
#2 = DIRECTION ( 'NONE',  ( -3.491481338843133355E-15, 1.224646799147353207E-16, -1.000000000000000000 ) ) ;
#3 = PERSON_AND_ORGANIZATION ( #165, #16 ) ;
#4 = AXIS2_PLACEMENT_3D ( 'NONE', #21, #173, #235 ) ;
#5 = CONICAL_SURFACE ( 'NONE', #102, 0.1569999999999998064, 0.2617993877991426910 ) ;
#6 = APPROVAL_STATUS ( 'not_yet_approved' ) ;
#7 = APPROVAL ( #6, 'UNSPECIFIED' ) ;
#8 = CARTESIAN_POINT ( 'NONE',  ( 0.0000000000000000000, 0.0000000000000000000, 0.0000000000000000000 ) ) ;
#9 = DIRECTION ( 'NONE',  ( 1.000000000000000000, 0.0000000000000000000, 0.0000000000000000000 ) ) ;
#10 = AXIS2_PLACEMENT_3D ( 'NONE', #17, #110, #24 ) ;
#11 = FACE_OUTER_BOUND ( 'NONE', #123, .T. ) ;
#12 =( NAMED_UNIT ( * ) PLANE_ANGLE_UNIT ( ) SI_UNIT ( $, .RADIAN. ) );
#13 = EDGE_LOOP ( 'NONE', ( #38 ) ) ;
#14 = FACE_OUTER_BOUND ( 'NONE', #81, .T. ) ;
#15 = CYLINDRICAL_SURFACE ( 'NONE', #166, 0.1569999999999999174 ) ;
#16 = ORGANIZATION ( 'UNSPECIFIED', 'UNSPECIFIED', '' ) ;
#17 = CARTESIAN_POINT ( 'NONE',  ( 4.641608539668074516E-15, -1.628057116548408379E-16, 1.329409522551257217 ) ) ;
#18 = ADVANCED_FACE ( 'NONE', ( #128, #273 ), #15, .T. ) ;
#19 = DIRECTION ( 'NONE',  ( -3.491481338843133355E-15, 1.224646799147353207E-16, -1.000000000000000000 ) ) ;
#20 = EDGE_CURVE ( 'NONE', #60, #60, #39, .T. ) ;
#21 = CARTESIAN_POINT ( 'NONE',  ( -2.622499882545793916E-32, 9.198491342898480360E-34, -7.511138190458530939E-18 ) ) ;
#22 = TOROIDAL_SURFACE ( 'NONE', #180, 0.6569999999999999174, 0.5000000000000000000 ) ;
#23 = FACE_OUTER_BOUND ( 'NONE', #35, .T. ) ;
#24 = DIRECTION ( 'NONE',  ( 0.0000000000000000000, 1.000000000000000000, 0.0000000000000000000 ) ) ;
#25 = ORIENTED_EDGE ( 'NONE', *, *, #137, .F. ) ;
#26 = CALENDAR_DATE ( 2021, 16, 12 ) ;
#27 = CALENDAR_DATE ( 2021, 16, 12 ) ;
#28 = APPROVAL_PERSON_ORGANIZATION ( #53, #211, #118 ) ;
#29 = CARTESIAN_POINT ( 'NONE',  ( 3.491481338843133355E-15, 0.1569999999999997786, 1.000000000000000000 ) ) ;
#30 = CALENDAR_DATE ( 2021, 16, 12 ) ;
#31 = DIRECTION ( 'NONE',  ( 0.0000000000000000000, 1.000000000000000000, 0.0000000000000000000 ) ) ;
#32 = APPROVAL_STATUS ( 'not_yet_approved' ) ;
#33 = CC_DESIGN_SECURITY_CLASSIFICATION ( #40, ( #55 ) ) ;
#34 = ORIENTED_EDGE ( 'NONE', *, *, #20, .F. ) ;
#35 = EDGE_LOOP ( 'NONE', ( #164 ) ) ;
#36 = DIRECTION ( 'NONE',  ( 4.275831445896958607E-31, 1.000000000000000000, 1.224646799147353207E-16 ) ) ;
#37 = CIRCLE ( 'NONE', #10, 0.1740370868554648176 ) ;
#38 = ORIENTED_EDGE ( 'NONE', *, *, #208, .T. ) ;
#39 = CIRCLE ( 'NONE', #79, 0.7499999999999967804 ) ;
#40 = SECURITY_CLASSIFICATION ( '', '', #220 ) ;
#41 = CARTESIAN_POINT ( 'NONE',  ( 1.047444401652940007E-13, -3.673940397442059178E-15, 30.00000000000000000 ) ) ;
#42 = DIRECTION ( 'NONE',  ( -4.275831445896958607E-31, -1.000000000000000000, -1.224646799147353207E-16 ) ) ;
#43 = DIRECTION ( 'NONE',  ( -6.133534854736427707E-31, -1.000000000000000000, -1.726436580390932821E-16 ) ) ;
#44 = CIRCLE ( 'NONE', #117, 0.1569999999999999174 ) ;
#45 = VERTEX_POINT ( 'NONE', #136 ) ;
#46 = EDGE_LOOP ( 'NONE', ( #116 ) ) ;
#47 = PLANE ( 'NONE',  #109 ) ;
#48 = DATE_AND_TIME ( #26, #156 ) ;
#49 = PERSON_AND_ORGANIZATION ( #165, #16 ) ;
#50 = VERTEX_POINT ( 'NONE', #29 ) ;
#51 = APPROVAL_STATUS ( 'not_yet_approved' ) ;
#52 = DIRECTION ( 'NONE',  ( 0.0000000000000000000, -1.000000000000000000, 0.0000000000000000000 ) ) ;
#53 = PERSON_AND_ORGANIZATION ( #165, #16 ) ;
#54 = DIRECTION ( 'NONE',  ( -3.491481338843133355E-15, 1.224646799147353207E-16, -1.000000000000000000 ) ) ;
#55 = PRODUCT_DEFINITION_FORMATION_WITH_SPECIFIED_SOURCE ( 'ANY', '', #229, .NOT_KNOWN. ) ;
#56 = EDGE_LOOP ( 'NONE', ( #174 ) ) ;
#57 = DIRECTION ( 'NONE',  ( 0.0000000000000000000, 1.000000000000000000, 0.0000000000000000000 ) ) ;
#58 = DIRECTION ( 'NONE',  ( -3.491481338843133355E-15, 1.224646799147353207E-16, -1.000000000000000000 ) ) ;
#59 = PLANE ( 'NONE',  #4 ) ;
#60 = VERTEX_POINT ( 'NONE', #134 ) ;
#61 = DIRECTION ( 'NONE',  ( 0.0000000000000000000, 1.000000000000000000, 0.0000000000000000000 ) ) ;
#62 = EDGE_LOOP ( 'NONE', ( #34 ) ) ;
#63 = CC_DESIGN_DATE_AND_TIME_ASSIGNMENT ( #163, #206, ( #247 ) ) ;
#64 = VERTEX_POINT ( 'NONE', #94 ) ;
#65 = EDGE_LOOP ( 'NONE', ( #78 ) ) ;
#66 = ADVANCED_FACE ( 'NONE', ( #142 ), #270, .F. ) ;
#67 = CIRCLE ( 'NONE', #231, 0.7499999999999998890 ) ;
#68 = DIRECTION ( 'NONE',  ( 3.491481338843133355E-15, -1.224646799147353207E-16, 1.000000000000000000 ) ) ;
#69 = APPROVAL_ROLE ( '' ) ;
#70 = ADVANCED_FACE ( 'NONE', ( #14, #82 ), #139, .T. ) ;
#71 = PERSON_AND_ORGANIZATION ( #165, #16 ) ;
#72 = COORDINATED_UNIVERSAL_TIME_OFFSET ( 1, 0, .AHEAD. ) ;
#73 = AXIS2_PLACEMENT_3D ( 'NONE', #152, #111, #93 ) ;
#74 = ORIENTED_EDGE ( 'NONE', *, *, #279, .T. ) ;
#75 = CALENDAR_DATE ( 2021, 16, 12 ) ;
#76 = DIRECTION ( 'NONE',  ( -3.491481338843133355E-15, 1.224646799147353207E-16, -1.000000000000000000 ) ) ;
#77 = DATE_AND_TIME ( #158, #171 ) ;
#78 = ORIENTED_EDGE ( 'NONE', *, *, #199, .F. ) ;
#79 = AXIS2_PLACEMENT_3D ( 'NONE', #275, #76, #31 ) ;
#80 = APPROVAL_PERSON_ORGANIZATION ( #3, #7, #178 ) ;
#81 = EDGE_LOOP ( 'NONE', ( #225 ) ) ;
#82 = FACE_BOUND ( 'NONE', #184, .T. ) ;
#83 = SHAPE_DEFINITION_REPRESENTATION ( #186, #237 ) ;
#84 = COORDINATED_UNIVERSAL_TIME_OFFSET ( 1, 0, .AHEAD. ) ;
#85 = FACE_OUTER_BOUND ( 'NONE', #179, .T. ) ;
#86 = EDGE_CURVE ( 'NONE', #216, #216, #67, .T. ) ;
#87 = ADVANCED_FACE ( 'NONE', ( #251, #162 ), #218, .T. ) ;
#88 = CARTESIAN_POINT ( 'NONE',  ( 8.078839165149720769E-16, -2.833675326961668752E-17, 0.2313871500692757932 ) ) ;
#89 = MANIFOLD_SOLID_BREP ( 'Corps-Déplacer/Copier1[2]', #129 ) ;
#90 = CIRCLE ( 'NONE', #193, 0.1569999999999998064 ) ;
#91 = CYLINDRICAL_SURFACE ( 'NONE', #226, 0.1569999999999998619 ) ;
#92 = CC_DESIGN_PERSON_AND_ORGANIZATION_ASSIGNMENT ( #49, #249, ( #40 ) ) ;
#93 = DIRECTION ( 'NONE',  ( 0.0000000000000000000, 1.000000000000000000, 0.0000000000000000000 ) ) ;
#94 = CARTESIAN_POINT ( 'NONE',  ( -1.182959891489475848E-32, 0.09500000000000001499, -3.388131789017202897E-18 ) ) ;
#95 = MANIFOLD_SOLID_BREP ( 'Corps-Déplacer/Copier1[1]', #154 ) ;
#96 = ORIENTED_EDGE ( 'NONE', *, *, #106, .T. ) ;
#97 = AXIS2_PLACEMENT_3D ( 'NONE', #125, #58, #57 ) ;
#98 = PERSON_AND_ORGANIZATION ( #165, #16 ) ;
#99 = PERSON_AND_ORGANIZATION_ROLE ( 'design_owner' ) ;
#100 = FACE_OUTER_BOUND ( 'NONE', #62, .T. ) ;
#101 = DATE_AND_TIME ( #27, #276 ) ;
#102 = AXIS2_PLACEMENT_3D ( 'NONE', #191, #278, #43 ) ;
#103 = DIRECTION ( 'NONE',  ( -3.491481338843133355E-15, 1.224646799147353207E-16, -1.000000000000000000 ) ) ;
#104 = EDGE_LOOP ( 'NONE', ( #107 ) ) ;
#105 = DIRECTION ( 'NONE',  ( -3.491481338843133355E-15, 1.224646799147353207E-16, -1.000000000000000000 ) ) ;
#106 = EDGE_CURVE ( 'NONE', #259, #259, #126, .T. ) ;
#107 = ORIENTED_EDGE ( 'NONE', *, *, #124, .T. ) ;
#108 = CC_DESIGN_PERSON_AND_ORGANIZATION_ASSIGNMENT ( #271, #140, ( #55 ) ) ;
#109 = AXIS2_PLACEMENT_3D ( 'NONE', #157, #281, #172 ) ;
#110 = DIRECTION ( 'NONE',  ( -3.491481338843133355E-15, 1.224646799147353207E-16, -1.000000000000000000 ) ) ;
#111 = DIRECTION ( 'NONE',  ( -3.491481338843133355E-15, 1.224646799147353207E-16, -1.000000000000000000 ) ) ;
#112 = CARTESIAN_POINT ( 'NONE',  ( 1.042207179644675275E-13, 0.7499999999999962252, 29.84999999999999787 ) ) ;
#113 = CIRCLE ( 'NONE', #205, 0.6000000000000000888 ) ;
#114 = DIRECTION ( 'NONE',  ( -3.491481338843133355E-15, 1.224646799147353207E-16, -1.000000000000000000 ) ) ;
#115 = DIRECTION ( 'NONE',  ( 4.390590712981053363E-31, 1.000000000000000000, 1.224646799147353207E-16 ) ) ;
#116 = ORIENTED_EDGE ( 'NONE', *, *, #199, .T. ) ;
#117 = AXIS2_PLACEMENT_3D ( 'NONE', #258, #2, #238 ) ;
#118 = APPROVAL_ROLE ( '' ) ;
#119 = PERSON_AND_ORGANIZATION_ROLE ( 'creator' ) ;
#120 = DIRECTION ( 'NONE',  ( 4.275831445896958607E-31, 1.000000000000000000, 1.224646799147353207E-16 ) ) ;
#121 =( GEOMETRIC_REPRESENTATION_CONTEXT ( 3 ) GLOBAL_UNCERTAINTY_ASSIGNED_CONTEXT ( ( #257 ) ) GLOBAL_UNIT_ASSIGNED_CONTEXT ( ( #200, #12, #201 ) ) REPRESENTATION_CONTEXT ( 'NONE', 'WORKASPACE' ) );
#122 = DIRECTION ( 'NONE',  ( -3.491481338843133355E-15, 1.224646799147353207E-16, -1.000000000000000000 ) ) ;
#123 = EDGE_LOOP ( 'NONE', ( #260 ) ) ;
#124 = EDGE_CURVE ( 'NONE', #64, #64, #135, .T. ) ;
#125 = CARTESIAN_POINT ( 'NONE',  ( 4.189777606611759237E-15, -1.469576158976823553E-16, 1.199999999999999956 ) ) ;
#126 = CIRCLE ( 'NONE', #97, 0.1569999999999999174 ) ;
#127 = ADVANCED_FACE ( 'NONE', ( #100, #11 ), #204, .T. ) ;
#128 = FACE_OUTER_BOUND ( 'NONE', #56, .T. ) ;
#129 = CLOSED_SHELL ( 'NONE', ( #227, #190, #203, #188 ) ) ;
#130 = AXIS2_PLACEMENT_3D ( 'NONE', #266, #222, #9 ) ;
#131 = PLANE ( 'NONE',  #167 ) ;
#132 = PRODUCT_RELATED_PRODUCT_CATEGORY ( 'detail', '', ( #229 ) ) ;
#133 = CARTESIAN_POINT ( 'NONE',  ( 3.491481338843133355E-15, 1.177311429389555629E-33, 1.000000000000000000 ) ) ;
#134 = CARTESIAN_POINT ( 'NONE',  ( 1.214662747577417979E-14, 0.7499999999999963363, 3.478932377682087740 ) ) ;
#135 = CIRCLE ( 'NONE', #234, 0.09500000000000001499 ) ;
#136 = CARTESIAN_POINT ( 'NONE',  ( 3.491481338843133355E-15, 0.1569999999999997786, 1.000000000000000000 ) ) ;
#137 = EDGE_CURVE ( 'NONE', #262, #262, #37, .T. ) ;
#138 = COORDINATED_UNIVERSAL_TIME_OFFSET ( 1, 0, .AHEAD. ) ;
#139 = CONICAL_SURFACE ( 'NONE', #255, 0.6000000000000000888, 0.7853981633974450594 ) ;
#140 = PERSON_AND_ORGANIZATION_ROLE ( 'design_supplier' ) ;
#141 = APPROVAL_DATE_TIME ( #77, #211 ) ;
#142 = FACE_OUTER_BOUND ( 'NONE', #182, .T. ) ;
#143 = CARTESIAN_POINT ( 'NONE',  ( 0.0000000000000000000, 0.0000000000000000000, 0.0000000000000000000 ) ) ;
#144 = ORIENTED_EDGE ( 'NONE', *, *, #265, .F. ) ;
#145 = DIRECTION ( 'NONE',  ( -3.491481338843133355E-15, 1.224646799147353207E-16, -1.000000000000000000 ) ) ;
#146 = APPLICATION_CONTEXT ( 'configuration controlled 3d designs of mechanical parts and assemblies' ) ;
#147 = APPROVAL ( #32, 'UNSPECIFIED' ) ;
#148 = EDGE_LOOP ( 'NONE', ( #209 ) ) ;
#149 = DIRECTION ( 'NONE',  ( 6.133534854736427707E-31, 1.000000000000000000, 1.726436580390932821E-16 ) ) ;
#150 = DIRECTION ( 'NONE',  ( 4.275831445896958607E-31, 1.000000000000000000, 1.224646799147352961E-16 ) ) ;
#151 = DESIGN_CONTEXT ( 'detailed design', #212, 'design' ) ;
#152 = CARTESIAN_POINT ( 'NONE',  ( 3.491481338843133355E-15, -1.224646799147353207E-16, 1.000000000000000000 ) ) ;
#153 = CARTESIAN_POINT ( 'NONE',  ( 4.641608539668074516E-15, 0.1740370868554646511, 1.329409522551257217 ) ) ;
#154 = CLOSED_SHELL ( 'NONE', ( #277, #18, #202, #87, #127, #70, #66 ) ) ;
#155 = EDGE_LOOP ( 'NONE', ( #248 ) ) ;
#156 = LOCAL_TIME ( 11, 16, 18.00000000000000000, #84 ) ;
#157 = CARTESIAN_POINT ( 'NONE',  ( 3.491481338843133355E-15, 1.177311429389555629E-33, 1.000000000000000000 ) ) ;
#158 = CALENDAR_DATE ( 2021, 16, 12 ) ;
#159 = APPROVAL_DATE_TIME ( #101, #147 ) ;
#160 = ORIENTED_EDGE ( 'NONE', *, *, #137, .T. ) ;
#161 = DATE_TIME_ROLE ( 'classification_date' ) ;
#162 = FACE_OUTER_BOUND ( 'NONE', #155, .T. ) ;
#163 = DATE_AND_TIME ( #75, #282 ) ;
#164 = ORIENTED_EDGE ( 'NONE', *, *, #106, .F. ) ;
#165 = PERSON ( 'UNSPECIFIED', 'UNSPECIFIED', 'UNSPECIFIED', ('UNSPECIFIED'), ('UNSPECIFIED'), ('UNSPECIFIED') ) ;
#166 = AXIS2_PLACEMENT_3D ( 'NONE', #8, #187, #246 ) ;
#167 = AXIS2_PLACEMENT_3D ( 'NONE', #133, #68, #42 ) ;
#168 = EDGE_LOOP ( 'NONE', ( #74 ) ) ;
#169 = CARTESIAN_POINT ( 'NONE',  ( 1.047444401652940007E-13, -3.673940397442059178E-15, 30.00000000000000000 ) ) ;
#170 = FACE_OUTER_BOUND ( 'NONE', #168, .T. ) ;
#171 = LOCAL_TIME ( 11, 16, 18.00000000000000000, #269 ) ;
#172 = DIRECTION ( 'NONE',  ( -4.275831445896958607E-31, -1.000000000000000000, -1.224646799147353207E-16 ) ) ;
#173 = DIRECTION ( 'NONE',  ( 3.491481338843133355E-15, -1.224646799147353207E-16, 1.000000000000000000 ) ) ;
#174 = ORIENTED_EDGE ( 'NONE', *, *, #208, .F. ) ;
#175 = CARTESIAN_POINT ( 'NONE',  ( 8.078839165149721755E-16, 0.1569999999999997786, 0.2313871500692758210 ) ) ;
#176 = CC_DESIGN_APPROVAL ( #147, ( #247 ) ) ;
#177 = APPLICATION_PROTOCOL_DEFINITION ( 'international standard', 'config_control_design', 1994, #146 ) ;
#178 = APPROVAL_ROLE ( '' ) ;
#179 = EDGE_LOOP ( 'NONE', ( #228 ) ) ;
#180 = AXIS2_PLACEMENT_3D ( 'NONE', #213, #192, #115 ) ;
#181 = PERSON_AND_ORGANIZATION_ROLE ( 'creator' ) ;
#182 = EDGE_LOOP ( 'NONE', ( #144 ) ) ;
#183 = PERSON_AND_ORGANIZATION ( #165, #16 ) ;
#184 = EDGE_LOOP ( 'NONE', ( #232 ) ) ;
#185 = DIRECTION ( 'NONE',  ( 0.0000000000000000000, 1.000000000000000000, 0.0000000000000000000 ) ) ;
#186 = PRODUCT_DEFINITION_SHAPE ( 'NONE', 'NONE',  #247 ) ;
#187 = DIRECTION ( 'NONE',  ( -3.491481338843133355E-15, 1.224646799147353207E-16, -1.000000000000000000 ) ) ;
#188 = ADVANCED_FACE ( 'NONE', ( #85 ), #47, .T. ) ;
#189 = FACE_OUTER_BOUND ( 'NONE', #196, .T. ) ;
#190 = ADVANCED_FACE ( 'NONE', ( #215, #283 ), #5, .T. ) ;
#191 = CARTESIAN_POINT ( 'NONE',  ( 8.078839165149720769E-16, -2.833675326961668752E-17, 0.2313871500692757932 ) ) ;
#192 = DIRECTION ( 'NONE',  ( -3.491481338843133355E-15, 1.224646799147353207E-16, -1.000000000000000000 ) ) ;
#193 = AXIS2_PLACEMENT_3D ( 'NONE', #88, #19, #149 ) ;
#194 = CARTESIAN_POINT ( 'NONE',  ( 0.0000000000000000000, 0.0000000000000000000, 0.0000000000000000000 ) ) ;
#195 = FACE_OUTER_BOUND ( 'NONE', #65, .T. ) ;
#196 = EDGE_LOOP ( 'NONE', ( #160 ) ) ;
#197 = DATE_AND_TIME ( #30, #198 ) ;
#198 = LOCAL_TIME ( 11, 16, 18.00000000000000000, #138 ) ;
#199 = EDGE_CURVE ( 'NONE', #239, #239, #90, .T. ) ;
#200 =( LENGTH_UNIT ( ) NAMED_UNIT ( * ) SI_UNIT ( .MILLI., .METRE. ) );
#201 =( NAMED_UNIT ( * ) SI_UNIT ( $, .STERADIAN. ) SOLID_ANGLE_UNIT ( ) );
#202 = ADVANCED_FACE ( 'NONE', ( #23, #189 ), #22, .F. ) ;
#203 = ADVANCED_FACE ( 'NONE', ( #195, #170 ), #91, .T. ) ;
#204 = CYLINDRICAL_SURFACE ( 'NONE', #263, 0.7499999999999983347 ) ;
#205 = AXIS2_PLACEMENT_3D ( 'NONE', #41, #114, #61 ) ;
#206 = DATE_TIME_ROLE ( 'creation_date' ) ;
#207 = CARTESIAN_POINT ( 'NONE',  ( 1.042207179644675275E-13, -3.655570695454848748E-15, 29.84999999999999787 ) ) ;
#208 = EDGE_CURVE ( 'NONE', #45, #45, #44, .T. ) ;
#209 = ORIENTED_EDGE ( 'NONE', *, *, #124, .F. ) ;
#210 = CIRCLE ( 'NONE', #73, 0.1569999999999999174 ) ;
#211 = APPROVAL ( #51, 'UNSPECIFIED' ) ;
#212 = APPLICATION_CONTEXT ( 'configuration controlled 3d designs of mechanical parts and assemblies' ) ;
#213 = CARTESIAN_POINT ( 'NONE',  ( 4.189777606611760026E-15, -1.084202172485504434E-16, 1.200000000000000178 ) ) ;
#214 = CC_DESIGN_APPROVAL ( #211, ( #55 ) ) ;
#215 = FACE_BOUND ( 'NONE', #148, .T. ) ;
#216 = VERTEX_POINT ( 'NONE', #112 ) ;
#217 = CARTESIAN_POINT ( 'NONE',  ( 4.189777606611759237E-15, 0.1569999999999997786, 1.199999999999999956 ) ) ;
#218 = CONICAL_SURFACE ( 'NONE', #244, 0.7499999999999967804, 0.2617993877991428575 ) ;
#219 = VERTEX_POINT ( 'NONE', #241 ) ;
#220 = SECURITY_CLASSIFICATION_LEVEL ( 'unclassified' ) ;
#221 = CC_DESIGN_PERSON_AND_ORGANIZATION_ASSIGNMENT ( #243, #119, ( #55 ) ) ;
#222 = DIRECTION ( 'NONE',  ( 0.0000000000000000000, 0.0000000000000000000, 1.000000000000000000 ) ) ;
#223 = CARTESIAN_POINT ( 'NONE',  ( -5.244999765091587832E-32, 1.839698268579696072E-33, -1.502227638091706188E-17 ) ) ;
#224 = APPLICATION_PROTOCOL_DEFINITION ( 'international standard', 'config_control_design', 1994, #212 ) ;
#225 = ORIENTED_EDGE ( 'NONE', *, *, #86, .F. ) ;
#226 = AXIS2_PLACEMENT_3D ( 'NONE', #194, #236, #254 ) ;
#227 = ADVANCED_FACE ( 'NONE', ( #1 ), #59, .F. ) ;
#228 = ORIENTED_EDGE ( 'NONE', *, *, #279, .F. ) ;
#229 = PRODUCT ( '62326', '62326', '', ( #264 ) ) ;
#230 = CARTESIAN_POINT ( 'NONE',  ( 1.214662747577417979E-14, -4.260463400778459370E-16, 3.478932377682087740 ) ) ;
#231 = AXIS2_PLACEMENT_3D ( 'NONE', #207, #105, #185 ) ;
#232 = ORIENTED_EDGE ( 'NONE', *, *, #265, .T. ) ;
#233 = AXIS2_PLACEMENT_3D ( 'NONE', #268, #122, #36 ) ;
#234 = AXIS2_PLACEMENT_3D ( 'NONE', #223, #145, #120 ) ;
#235 = DIRECTION ( 'NONE',  ( -4.275831445896958607E-31, -1.000000000000000000, -1.224646799147353207E-16 ) ) ;
#236 = DIRECTION ( 'NONE',  ( -3.491481338843133355E-15, 1.224646799147353207E-16, -1.000000000000000000 ) ) ;
#237 = ADVANCED_BREP_SHAPE_REPRESENTATION ( '62326', ( #95, #89, #130 ), #121 ) ;
#238 = DIRECTION ( 'NONE',  ( 0.0000000000000000000, 1.000000000000000000, 0.0000000000000000000 ) ) ;
#239 = VERTEX_POINT ( 'NONE', #175 ) ;
#240 = EDGE_LOOP ( 'NONE', ( #96 ) ) ;
#241 = CARTESIAN_POINT ( 'NONE',  ( 1.047444401652940007E-13, 0.5999999999999963141, 30.00000000000000000 ) ) ;
#242 = CC_DESIGN_PERSON_AND_ORGANIZATION_ASSIGNMENT ( #183, #99, ( #229 ) ) ;
#243 = PERSON_AND_ORGANIZATION ( #165, #16 ) ;
#244 = AXIS2_PLACEMENT_3D ( 'NONE', #230, #253, #52 ) ;
#245 = COORDINATED_UNIVERSAL_TIME_OFFSET ( 1, 0, .AHEAD. ) ;
#246 = DIRECTION ( 'NONE',  ( 4.275831445896958607E-31, 1.000000000000000000, 1.224646799147353207E-16 ) ) ;
#247 = PRODUCT_DEFINITION ( 'UNKNOWN', '', #55, #151 ) ;
#248 = ORIENTED_EDGE ( 'NONE', *, *, #20, .T. ) ;
#249 = PERSON_AND_ORGANIZATION_ROLE ( 'classification_officer' ) ;
#250 = DIRECTION ( 'NONE',  ( 0.0000000000000000000, 1.000000000000000000, 0.0000000000000000000 ) ) ;
#251 = FACE_BOUND ( 'NONE', #272, .T. ) ;
#252 = APPROVAL_DATE_TIME ( #48, #7 ) ;
#253 = DIRECTION ( 'NONE',  ( 3.491481338843133355E-15, -1.224646799147353207E-16, 1.000000000000000000 ) ) ;
#254 = DIRECTION ( 'NONE',  ( 4.275831445896958607E-31, 1.000000000000000000, 1.224646799147353207E-16 ) ) ;
#255 = AXIS2_PLACEMENT_3D ( 'NONE', #169, #54, #250 ) ;
#256 = FACE_OUTER_BOUND ( 'NONE', #13, .T. ) ;
#257 = UNCERTAINTY_MEASURE_WITH_UNIT (LENGTH_MEASURE( 1.000000000000000082E-05 ), #200, 'distance_accuracy_value', 'NONE');
#258 = CARTESIAN_POINT ( 'NONE',  ( 3.491481338843133355E-15, -1.224646799147353207E-16, 1.000000000000000000 ) ) ;
#259 = VERTEX_POINT ( 'NONE', #217 ) ;
#260 = ORIENTED_EDGE ( 'NONE', *, *, #86, .T. ) ;
#261 = CC_DESIGN_DATE_AND_TIME_ASSIGNMENT ( #197, #161, ( #40 ) ) ;
#262 = VERTEX_POINT ( 'NONE', #153 ) ;
#263 = AXIS2_PLACEMENT_3D ( 'NONE', #143, #103, #150 ) ;
#264 = MECHANICAL_CONTEXT ( 'NONE', #146, 'mechanical' ) ;
#265 = EDGE_CURVE ( 'NONE', #219, #219, #113, .T. ) ;
#266 = CARTESIAN_POINT ( 'NONE',  ( 0.0000000000000000000, 0.0000000000000000000, 0.0000000000000000000 ) ) ;
#267 = CC_DESIGN_APPROVAL ( #7, ( #40 ) ) ;
#268 = CARTESIAN_POINT ( 'NONE',  ( 1.047444401652940007E-13, 4.499279347985518085E-33, 30.00000000000000000 ) ) ;
#269 = COORDINATED_UNIVERSAL_TIME_OFFSET ( 1, 0, .AHEAD. ) ;
#270 = PLANE ( 'NONE',  #233 ) ;
#271 = PERSON_AND_ORGANIZATION ( #165, #16 ) ;
#272 = EDGE_LOOP ( 'NONE', ( #25 ) ) ;
#273 = FACE_OUTER_BOUND ( 'NONE', #240, .T. ) ;
#274 = APPROVAL_PERSON_ORGANIZATION ( #71, #147, #69 ) ;
#275 = CARTESIAN_POINT ( 'NONE',  ( 1.214662747577417979E-14, -4.260463400778459370E-16, 3.478932377682087740 ) ) ;
#276 = LOCAL_TIME ( 11, 16, 18.00000000000000000, #72 ) ;
#277 = ADVANCED_FACE ( 'NONE', ( #256 ), #131, .F. ) ;
#278 = DIRECTION ( 'NONE',  ( 3.491481338843133355E-15, -1.224646799147353207E-16, 1.000000000000000000 ) ) ;
#279 = EDGE_CURVE ( 'NONE', #50, #50, #210, .T. ) ;
#280 = CC_DESIGN_PERSON_AND_ORGANIZATION_ASSIGNMENT ( #98, #181, ( #247 ) ) ;
#281 = DIRECTION ( 'NONE',  ( 3.491481338843133355E-15, -1.224646799147353207E-16, 1.000000000000000000 ) ) ;
#282 = LOCAL_TIME ( 11, 16, 18.00000000000000000, #245 ) ;
#283 = FACE_OUTER_BOUND ( 'NONE', #46, .T. ) ;
ENDSEC;
END-ISO-10303-21;
