ISO-10303-21;
HEADER;
FILE_DESCRIPTION (( 'STEP AP203' ),
    '1' );
FILE_NAME ('623.step',
    '2021-12-06T12:59:53',
    ( '' ),
    ( '' ),
    'SwSTEP 2.0',
    'SolidWorks 2019',
    '' );
FILE_SCHEMA (( 'CONFIG_CONTROL_DESIGN' ));
ENDSEC;

DATA;
#1 = EDGE_LOOP ( 'NONE', ( #169 ) ) ;
#2 = PRODUCT_DEFINITION ( 'UNKNOWN', '', #98, #100 ) ;
#3 = AXIS2_PLACEMENT_3D ( 'NONE', #94, #110, #130 ) ;
#4 = LOCAL_TIME ( 13, 59, 53.00000000000000000, #55 ) ;
#5 = FACE_OUTER_BOUND ( 'NONE', #119, .T. ) ;
#6 =( NAMED_UNIT ( * ) SI_UNIT ( $, .STERADIAN. ) SOLID_ANGLE_UNIT ( ) );
#7 = CIRCLE ( 'NONE', #17, 2.500000000000000000 ) ;
#8 = PERSON_AND_ORGANIZATION_ROLE ( 'design_supplier' ) ;
#9 = COORDINATED_UNIVERSAL_TIME_OFFSET ( 1, 0, .AHEAD. ) ;
#10 = APPROVAL_PERSON_ORGANIZATION ( #75, #164, #77 ) ;
#11 = PERSON ( 'UNSPECIFIED', 'UNSPECIFIED', 'UNSPECIFIED', ('UNSPECIFIED'), ('UNSPECIFIED'), ('UNSPECIFIED') ) ;
#12 = SHAPE_DEFINITION_REPRESENTATION ( #134, #56 ) ;
#13 = ORIENTED_EDGE ( 'NONE', *, *, #111, .T. ) ;
#14 = APPROVAL_DATE_TIME ( #166, #164 ) ;
#15 = APPROVAL ( #127, 'UNSPECIFIED' ) ;
#16 = DIRECTION ( 'NONE',  ( -3.491481338843133355E-15, 1.360718665719281150E-16, -1.000000000000000000 ) ) ;
#17 = AXIS2_PLACEMENT_3D ( 'NONE', #37, #156, #21 ) ;
#18 = ORIENTED_EDGE ( 'NONE', *, *, #25, .T. ) ;
#19 = EDGE_LOOP ( 'NONE', ( #13 ) ) ;
#20 = PRODUCT ( '623', '623', '', ( #60 ) ) ;
#21 = DIRECTION ( 'NONE',  ( 4.622231866529366047E-31, 1.000000000000000000, 1.301042606982605321E-16 ) ) ;
#22 = CC_DESIGN_PERSON_AND_ORGANIZATION_ASSIGNMENT ( #61, #65, ( #98 ) ) ;
#23 = PLANE ( 'NONE',  #138 ) ;
#24 = CC_DESIGN_PERSON_AND_ORGANIZATION_ASSIGNMENT ( #125, #8, ( #98 ) ) ;
#25 = EDGE_CURVE ( 'NONE', #113, #113, #7, .T. ) ;
#26 = FACE_BOUND ( 'NONE', #1, .T. ) ;
#27 = PLANE ( 'NONE',  #92 ) ;
#28 = PERSON_AND_ORGANIZATION ( #11, #66 ) ;
#29 = CALENDAR_DATE ( 2021, 6, 12 ) ;
#30 = APPLICATION_CONTEXT ( 'configuration controlled 3d designs of mechanical parts and assemblies' ) ;
#31 = DATE_AND_TIME ( #163, #85 ) ;
#32 = CC_DESIGN_APPROVAL ( #15, ( #80 ) ) ;
#33 = PERSON_AND_ORGANIZATION ( #11, #66 ) ;
#34 = CYLINDRICAL_SURFACE ( 'NONE', #3, 2.500000000000000000 ) ;
#35 = CYLINDRICAL_SURFACE ( 'NONE', #123, 10.00000000000000000 ) ;
#36 = EDGE_CURVE ( 'NONE', #97, #97, #62, .T. ) ;
#37 = CARTESIAN_POINT ( 'NONE',  ( 3.142333204958819231E-15, -1.224646799147352714E-16, 0.8999999999999998002 ) ) ;
#38 = FACE_BOUND ( 'NONE', #106, .T. ) ;
#39 = DIRECTION ( 'NONE',  ( 4.750923828774397576E-31, 1.000000000000000000, 1.360718665719281150E-16 ) ) ;
#40 = DIRECTION ( 'NONE',  ( 1.000000000000000000, 0.0000000000000000000, 0.0000000000000000000 ) ) ;
#41 = CARTESIAN_POINT ( 'NONE',  ( 3.142333204958820414E-15, 2.500000000000000000, 0.9000000000000001332 ) ) ;
#42 = CARTESIAN_POINT ( 'NONE',  ( -6.842277657836020854E-46, 10.00000000000000000, 0.0000000000000000000 ) ) ;
#43 = CALENDAR_DATE ( 2021, 6, 12 ) ;
#44 = DATE_TIME_ROLE ( 'classification_date' ) ;
#45 = APPROVAL_ROLE ( '' ) ;
#46 = APPROVAL_STATUS ( 'not_yet_approved' ) ;
#47 = DIRECTION ( 'NONE',  ( -3.491481338843133355E-15, 1.360718665719281150E-16, -1.000000000000000000 ) ) ;
#48 = ORIENTED_EDGE ( 'NONE', *, *, #36, .T. ) ;
#49 = CLOSED_SHELL ( 'NONE', ( #137, #72, #129, #109 ) ) ;
#50 = ORIENTED_EDGE ( 'NONE', *, *, #111, .F. ) ;
#51 = AXIS2_PLACEMENT_3D ( 'NONE', #82, #47, #118 ) ;
#52 = CC_DESIGN_PERSON_AND_ORGANIZATION_ASSIGNMENT ( #101, #114, ( #20 ) ) ;
#53 = CC_DESIGN_PERSON_AND_ORGANIZATION_ASSIGNMENT ( #126, #87, ( #2 ) ) ;
#54 = CIRCLE ( 'NONE', #128, 2.500000000000000000 ) ;
#55 = COORDINATED_UNIVERSAL_TIME_OFFSET ( 1, 0, .AHEAD. ) ;
#56 = ADVANCED_BREP_SHAPE_REPRESENTATION ( '623', ( #145, #152 ), #105 ) ;
#57 = COORDINATED_UNIVERSAL_TIME_OFFSET ( 1, 0, .AHEAD. ) ;
#58 = EDGE_LOOP ( 'NONE', ( #50 ) ) ;
#59 = FACE_OUTER_BOUND ( 'NONE', #93, .T. ) ;
#60 = MECHANICAL_CONTEXT ( 'NONE', #30, 'mechanical' ) ;
#61 = PERSON_AND_ORGANIZATION ( #11, #66 ) ;
#62 = CIRCLE ( 'NONE', #51, 10.00000000000000000 ) ;
#63 = COORDINATED_UNIVERSAL_TIME_OFFSET ( 1, 0, .AHEAD. ) ;
#64 = APPLICATION_PROTOCOL_DEFINITION ( 'international standard', 'config_control_design', 1994, #120 ) ;
#65 = PERSON_AND_ORGANIZATION_ROLE ( 'creator' ) ;
#66 = ORGANIZATION ( 'UNSPECIFIED', 'UNSPECIFIED', '' ) ;
#67 = DIRECTION ( 'NONE',  ( 4.750923828774396700E-31, 1.000000000000000000, 1.360718665719281150E-16 ) ) ;
#68 = DIRECTION ( 'NONE',  ( 3.491481338843133355E-15, -1.360718665719281150E-16, 1.000000000000000000 ) ) ;
#69 = APPROVAL_PERSON_ORGANIZATION ( #153, #99, #76 ) ;
#70 = CARTESIAN_POINT ( 'NONE',  ( 3.142333204958818048E-15, 2.500000000000000000, 0.8999999999999994671 ) ) ;
#71 = LOCAL_TIME ( 13, 59, 53.00000000000000000, #9 ) ;
#72 = ADVANCED_FACE ( 'NONE', ( #155, #91 ), #35, .T. ) ;
#73 =( LENGTH_UNIT ( ) NAMED_UNIT ( * ) SI_UNIT ( .MILLI., .METRE. ) );
#74 = PRODUCT_RELATED_PRODUCT_CATEGORY ( 'detail', '', ( #20 ) ) ;
#75 = PERSON_AND_ORGANIZATION ( #11, #66 ) ;
#76 = APPROVAL_ROLE ( '' ) ;
#77 = APPROVAL_ROLE ( '' ) ;
#78 = PERSON_AND_ORGANIZATION_ROLE ( 'classification_officer' ) ;
#79 = CARTESIAN_POINT ( 'NONE',  ( -4.750923828774397751E-30, 1.851555287236860969E-31, -1.360718665719281199E-15 ) ) ;
#80 = SECURITY_CLASSIFICATION ( '', '', #104 ) ;
#81 = DIRECTION ( 'NONE',  ( -3.491481338843133355E-15, 1.360718665719281150E-16, -1.000000000000000000 ) ) ;
#82 = CARTESIAN_POINT ( 'NONE',  ( 3.142333204958814892E-15, -1.224646799147350989E-16, 0.8999999999999985789 ) ) ;
#83 = FACE_OUTER_BOUND ( 'NONE', #158, .T. ) ;
#84 = VERTEX_POINT ( 'NONE', #42 ) ;
#85 = LOCAL_TIME ( 13, 59, 53.00000000000000000, #88 ) ;
#86 = CC_DESIGN_DATE_AND_TIME_ASSIGNMENT ( #102, #44, ( #80 ) ) ;
#87 = PERSON_AND_ORGANIZATION_ROLE ( 'creator' ) ;
#88 = COORDINATED_UNIVERSAL_TIME_OFFSET ( 1, 0, .AHEAD. ) ;
#89 = APPROVAL_PERSON_ORGANIZATION ( #28, #15, #45 ) ;
#90 = EDGE_LOOP ( 'NONE', ( #48 ) ) ;
#91 = FACE_OUTER_BOUND ( 'NONE', #58, .T. ) ;
#92 = AXIS2_PLACEMENT_3D ( 'NONE', #133, #150, #39 ) ;
#93 = EDGE_LOOP ( 'NONE', ( #142 ) ) ;
#94 = CARTESIAN_POINT ( 'NONE',  ( 0.0000000000000000000, 0.0000000000000000000, 0.0000000000000000000 ) ) ;
#95 = CIRCLE ( 'NONE', #154, 10.00000000000000000 ) ;
#96 = CARTESIAN_POINT ( 'NONE',  ( -1.710569414459005214E-46, 2.500000000000000000, 0.0000000000000000000 ) ) ;
#97 = VERTEX_POINT ( 'NONE', #148 ) ;
#98 = PRODUCT_DEFINITION_FORMATION_WITH_SPECIFIED_SOURCE ( 'ANY', '', #20, .NOT_KNOWN. ) ;
#99 = APPROVAL ( #141, 'UNSPECIFIED' ) ;
#100 = DESIGN_CONTEXT ( 'detailed design', #120, 'design' ) ;
#101 = PERSON_AND_ORGANIZATION ( #11, #66 ) ;
#102 = DATE_AND_TIME ( #29, #4 ) ;
#103 = DATE_TIME_ROLE ( 'creation_date' ) ;
#104 = SECURITY_CLASSIFICATION_LEVEL ( 'unclassified' ) ;
#105 =( GEOMETRIC_REPRESENTATION_CONTEXT ( 3 ) GLOBAL_UNCERTAINTY_ASSIGNED_CONTEXT ( ( #136 ) ) GLOBAL_UNIT_ASSIGNED_CONTEXT ( ( #73, #124, #6 ) ) REPRESENTATION_CONTEXT ( 'NONE', 'WORKASPACE' ) );
#106 = EDGE_LOOP ( 'NONE', ( #18 ) ) ;
#107 = CARTESIAN_POINT ( 'NONE',  ( -1.187730957193599438E-30, 4.628888218092152421E-32, -3.401796664298202997E-16 ) ) ;
#108 = CC_DESIGN_SECURITY_CLASSIFICATION ( #80, ( #98 ) ) ;
#109 = ADVANCED_FACE ( 'NONE', ( #5, #59 ), #34, .F. ) ;
#110 = DIRECTION ( 'NONE',  ( -3.491481338843133355E-15, 1.360718665719281150E-16, -1.000000000000000000 ) ) ;
#111 = EDGE_CURVE ( 'NONE', #84, #84, #95, .T. ) ;
#112 = VERTEX_POINT ( 'NONE', #96 ) ;
#113 = VERTEX_POINT ( 'NONE', #41 ) ;
#114 = PERSON_AND_ORGANIZATION_ROLE ( 'design_owner' ) ;
#115 = APPROVAL_DATE_TIME ( #139, #15 ) ;
#116 = APPROVAL_DATE_TIME ( #31, #99 ) ;
#117 = EDGE_CURVE ( 'NONE', #112, #112, #54, .T. ) ;
#118 = DIRECTION ( 'NONE',  ( 4.622231866529366047E-31, 1.000000000000000000, 1.409462824231155764E-16 ) ) ;
#119 = EDGE_LOOP ( 'NONE', ( #143 ) ) ;
#120 = APPLICATION_CONTEXT ( 'configuration controlled 3d designs of mechanical parts and assemblies' ) ;
#121 = CARTESIAN_POINT ( 'NONE',  ( 0.0000000000000000000, 0.0000000000000000000, 0.0000000000000000000 ) ) ;
#122 = DIRECTION ( 'NONE',  ( -3.491481338843133355E-15, 1.360718665719281150E-16, -1.000000000000000000 ) ) ;
#123 = AXIS2_PLACEMENT_3D ( 'NONE', #121, #81, #67 ) ;
#124 =( NAMED_UNIT ( * ) PLANE_ANGLE_UNIT ( ) SI_UNIT ( $, .RADIAN. ) );
#125 = PERSON_AND_ORGANIZATION ( #11, #66 ) ;
#126 = PERSON_AND_ORGANIZATION ( #11, #66 ) ;
#127 = APPROVAL_STATUS ( 'not_yet_approved' ) ;
#128 = AXIS2_PLACEMENT_3D ( 'NONE', #107, #122, #131 ) ;
#129 = ADVANCED_FACE ( 'NONE', ( #38, #83 ), #23, .T. ) ;
#130 = DIRECTION ( 'NONE',  ( 4.750923828774396700E-31, 1.000000000000000000, 1.360718665719281150E-16 ) ) ;
#131 = DIRECTION ( 'NONE',  ( 4.750923828774396700E-31, 1.000000000000000000, 1.360718665719281150E-16 ) ) ;
#132 = DIRECTION ( 'NONE',  ( -4.750923828774397576E-31, -1.000000000000000000, -1.360718665719281150E-16 ) ) ;
#133 = CARTESIAN_POINT ( 'NONE',  ( -1.781596435790399507E-30, 2.500000000000000000, -5.102694996447304742E-16 ) ) ;
#134 = PRODUCT_DEFINITION_SHAPE ( 'NONE', 'NONE',  #2 ) ;
#135 = FACE_OUTER_BOUND ( 'NONE', #19, .T. ) ;
#136 = UNCERTAINTY_MEASURE_WITH_UNIT (LENGTH_MEASURE( 1.000000000000000082E-05 ), #73, 'distance_accuracy_value', 'NONE');
#137 = ADVANCED_FACE ( 'NONE', ( #135, #26 ), #27, .T. ) ;
#138 = AXIS2_PLACEMENT_3D ( 'NONE', #70, #68, #132 ) ;
#139 = DATE_AND_TIME ( #43, #71 ) ;
#140 = DATE_AND_TIME ( #165, #146 ) ;
#141 = APPROVAL_STATUS ( 'not_yet_approved' ) ;
#142 = ORIENTED_EDGE ( 'NONE', *, *, #25, .F. ) ;
#143 = ORIENTED_EDGE ( 'NONE', *, *, #117, .T. ) ;
#144 = CC_DESIGN_PERSON_AND_ORGANIZATION_ASSIGNMENT ( #33, #78, ( #80 ) ) ;
#145 = MANIFOLD_SOLID_BREP ( 'Corps-Déplacer/Copier1', #49 ) ;
#146 = LOCAL_TIME ( 13, 59, 53.00000000000000000, #63 ) ;
#147 = ORIENTED_EDGE ( 'NONE', *, *, #36, .F. ) ;
#148 = CARTESIAN_POINT ( 'NONE',  ( 3.142333204958819625E-15, 10.00000000000000000, 0.9000000000000000222 ) ) ;
#149 = DIRECTION ( 'NONE',  ( 0.0000000000000000000, 0.0000000000000000000, 1.000000000000000000 ) ) ;
#150 = DIRECTION ( 'NONE',  ( -3.491481338843133355E-15, 1.360718665719281150E-16, -1.000000000000000000 ) ) ;
#151 = CALENDAR_DATE ( 2021, 6, 12 ) ;
#152 = AXIS2_PLACEMENT_3D ( 'NONE', #160, #149, #40 ) ;
#153 = PERSON_AND_ORGANIZATION ( #11, #66 ) ;
#154 = AXIS2_PLACEMENT_3D ( 'NONE', #79, #16, #168 ) ;
#155 = FACE_OUTER_BOUND ( 'NONE', #90, .T. ) ;
#156 = DIRECTION ( 'NONE',  ( -3.491481338843133355E-15, 1.360718665719281150E-16, -1.000000000000000000 ) ) ;
#157 = CC_DESIGN_DATE_AND_TIME_ASSIGNMENT ( #140, #103, ( #2 ) ) ;
#158 = EDGE_LOOP ( 'NONE', ( #147 ) ) ;
#159 = CC_DESIGN_APPROVAL ( #99, ( #2 ) ) ;
#160 = CARTESIAN_POINT ( 'NONE',  ( 0.0000000000000000000, 0.0000000000000000000, 0.0000000000000000000 ) ) ;
#161 = APPLICATION_PROTOCOL_DEFINITION ( 'international standard', 'config_control_design', 1994, #30 ) ;
#162 = LOCAL_TIME ( 13, 59, 53.00000000000000000, #57 ) ;
#163 = CALENDAR_DATE ( 2021, 6, 12 ) ;
#164 = APPROVAL ( #46, 'UNSPECIFIED' ) ;
#165 = CALENDAR_DATE ( 2021, 6, 12 ) ;
#166 = DATE_AND_TIME ( #151, #162 ) ;
#167 = CC_DESIGN_APPROVAL ( #164, ( #98 ) ) ;
#168 = DIRECTION ( 'NONE',  ( 4.750923828774396700E-31, 1.000000000000000000, 1.360718665719281150E-16 ) ) ;
#169 = ORIENTED_EDGE ( 'NONE', *, *, #117, .F. ) ;
ENDSEC;
END-ISO-10303-21;
