ISO-10303-21;
HEADER;
FILE_DESCRIPTION (( 'STEP AP203' ),
    '1' );
FILE_NAME ('6197.step',
    '2021-10-07T13:48:31',
    ( '' ),
    ( '' ),
    'SwSTEP 2.0',
    'SolidWorks 2019',
    '' );
FILE_SCHEMA (( 'CONFIG_CONTROL_DESIGN' ));
ENDSEC;

DATA;
#1 = CARTESIAN_POINT ( 'NONE',  ( 0.0000000000000000000, 0.0000000000000000000, 0.0000000000000000000 ) ) ;
#2 = CIRCLE ( 'NONE', #123, 0.6349999999999986766 ) ;
#3 = PERSON_AND_ORGANIZATION ( #67, #169 ) ;
#4 = EDGE_LOOP ( 'NONE', ( #159 ) ) ;
#5 = COORDINATED_UNIVERSAL_TIME_OFFSET ( 1, 0, .AHEAD. ) ;
#6 = ADVANCED_FACE ( 'NONE', ( #162 ), #41, .T. ) ;
#7 = CALENDAR_DATE ( 2021, 7, 10 ) ;
#8 = DIRECTION ( 'NONE',  ( -4.275831445896958607E-31, -1.000000000000000000, -1.224646799147353207E-16 ) ) ;
#9 = CARTESIAN_POINT ( 'NONE',  ( 1.040461438975253866E-13, -3.649447461459112464E-15, 29.80000000000000426 ) ) ;
#10 = DIRECTION ( 'NONE',  ( 3.491481338843133355E-15, -1.224646799147353207E-16, 1.000000000000000000 ) ) ;
#11 = DIRECTION ( 'NONE',  ( 0.0000000000000000000, 1.000000000000000000, 0.0000000000000000000 ) ) ;
#12 = CARTESIAN_POINT ( 'NONE',  ( 1.047444401652940007E-13, 4.124339402320045473E-33, 30.00000000000000000 ) ) ;
#13 = APPROVAL ( #187, 'UNSPECIFIED' ) ;
#14 = CONICAL_SURFACE ( 'NONE', #100, 0.7499999999999967804, 0.5235987755982878245 ) ;
#15 = SECURITY_CLASSIFICATION ( '', '', #22 ) ;
#16 = MANIFOLD_SOLID_BREP ( 'Corps-Déplacer/Copier1[2]', #167 ) ;
#17 = ADVANCED_FACE ( 'NONE', ( #112, #25 ), #149, .T. ) ;
#18 = AXIS2_PLACEMENT_3D ( 'NONE', #115, #113, #166 ) ;
#19 = APPROVAL_PERSON_ORGANIZATION ( #173, #203, #171 ) ;
#20 = DATE_TIME_ROLE ( 'creation_date' ) ;
#21 = ORIENTED_EDGE ( 'NONE', *, *, #209, .F. ) ;
#22 = SECURITY_CLASSIFICATION_LEVEL ( 'unclassified' ) ;
#23 = ORIENTED_EDGE ( 'NONE', *, *, #174, .F. ) ;
#24 = EDGE_LOOP ( 'NONE', ( #191 ) ) ;
#25 = FACE_OUTER_BOUND ( 'NONE', #213, .T. ) ;
#26 = APPROVAL_ROLE ( '' ) ;
#27 = AXIS2_PLACEMENT_3D ( 'NONE', #201, #45, #117 ) ;
#28 = DIRECTION ( 'NONE',  ( 4.275831445896959482E-31, 1.000000000000000000, 1.224646799147353454E-16 ) ) ;
#29 = CARTESIAN_POINT ( 'NONE',  ( 3.491481338843133355E-14, 4.761737309951380662E-33, 10.00000000000000000 ) ) ;
#30 = CARTESIAN_POINT ( 'NONE',  ( 3.491481338843133355E-14, -1.224646799147353256E-15, 10.00000000000000000 ) ) ;
#31 = AXIS2_PLACEMENT_3D ( 'NONE', #151, #168, #181 ) ;
#32 = CARTESIAN_POINT ( 'NONE',  ( 1.040461438975253866E-13, 0.7499999999999955591, 29.80000000000000426 ) ) ;
#33 = CARTESIAN_POINT ( 'NONE',  ( 1.332162460498603960E-15, 0.6349999999999986766, 0.3815464930825041567 ) ) ;
#34 =( NAMED_UNIT ( * ) SI_UNIT ( $, .STERADIAN. ) SOLID_ANGLE_UNIT ( ) );
#35 = CC_DESIGN_SECURITY_CLASSIFICATION ( #15, ( #39 ) ) ;
#36 = DIRECTION ( 'NONE',  ( 0.0000000000000000000, 0.0000000000000000000, 1.000000000000000000 ) ) ;
#37 = APPROVAL_DATE_TIME ( #140, #190 ) ;
#38 = AXIS2_PLACEMENT_3D ( 'NONE', #83, #96, #11 ) ;
#39 = PRODUCT_DEFINITION_FORMATION_WITH_SPECIFIED_SOURCE ( 'ANY', '', #50, .NOT_KNOWN. ) ;
#40 = DATE_AND_TIME ( #127, #158 ) ;
#41 = PLANE ( 'NONE',  #109 ) ;
#42 = PERSON_AND_ORGANIZATION ( #67, #169 ) ;
#43 = DIRECTION ( 'NONE',  ( 4.275831445896958607E-31, 1.000000000000000000, 1.224646799147353207E-16 ) ) ;
#44 = AXIS2_PLACEMENT_3D ( 'NONE', #1, #36, #157 ) ;
#45 = DIRECTION ( 'NONE',  ( -3.491481338843133355E-15, 1.224646799147353207E-16, -1.000000000000000000 ) ) ;
#46 = DIRECTION ( 'NONE',  ( -3.491481338843133355E-15, 1.224646799147353207E-16, -1.000000000000000000 ) ) ;
#47 = DIRECTION ( 'NONE',  ( 0.0000000000000000000, 1.000000000000000000, 0.0000000000000000000 ) ) ;
#48 = CIRCLE ( 'NONE', #77, 0.6350000000000000089 ) ;
#49 = CARTESIAN_POINT ( 'NONE',  ( 0.0000000000000000000, 0.0000000000000000000, 0.0000000000000000000 ) ) ;
#50 = PRODUCT ( '6197', '6197', '', ( #145 ) ) ;
#51 = ORIENTED_EDGE ( 'NONE', *, *, #99, .T. ) ;
#52 = CC_DESIGN_PERSON_AND_ORGANIZATION_ASSIGNMENT ( #3, #210, ( #15 ) ) ;
#53 = CONICAL_SURFACE ( 'NONE', #31, 0.6349999999999986766, 1.029744258676649649 ) ;
#54 = CALENDAR_DATE ( 2021, 7, 10 ) ;
#55 = APPLICATION_PROTOCOL_DEFINITION ( 'international standard', 'config_control_design', 1994, #105 ) ;
#56 = ORIENTED_EDGE ( 'NONE', *, *, #135, .F. ) ;
#57 = PERSON_AND_ORGANIZATION_ROLE ( 'design_owner' ) ;
#58 = DIRECTION ( 'NONE',  ( -3.491481338843133355E-15, 1.224646799147353207E-16, -1.000000000000000000 ) ) ;
#59 = PRODUCT_RELATED_PRODUCT_CATEGORY ( 'detail', '', ( #50 ) ) ;
#60 = CARTESIAN_POINT ( 'NONE',  ( 1.332162460498603763E-15, -4.672596914793863597E-17, 0.3815464930825041012 ) ) ;
#61 = CC_DESIGN_APPROVAL ( #13, ( #15 ) ) ;
#62 = DIRECTION ( 'NONE',  ( 0.0000000000000000000, 1.000000000000000000, 0.0000000000000000000 ) ) ;
#63 = FACE_OUTER_BOUND ( 'NONE', #66, .T. ) ;
#64 = CYLINDRICAL_SURFACE ( 'NONE', #163, 0.7499999999999981126 ) ;
#65 = UNCERTAINTY_MEASURE_WITH_UNIT (LENGTH_MEASURE( 1.000000000000000082E-05 ), #84, 'distance_accuracy_value', 'NONE');
#66 = EDGE_LOOP ( 'NONE', ( #93 ) ) ;
#67 = PERSON ( 'UNSPECIFIED', 'UNSPECIFIED', 'UNSPECIFIED', ('UNSPECIFIED'), ('UNSPECIFIED'), ('UNSPECIFIED') ) ;
#68 = PERSON_AND_ORGANIZATION ( #67, #169 ) ;
#69 = APPROVAL_PERSON_ORGANIZATION ( #68, #190, #124 ) ;
#70 = COORDINATED_UNIVERSAL_TIME_OFFSET ( 1, 0, .AHEAD. ) ;
#71 = EDGE_LOOP ( 'NONE', ( #56 ) ) ;
#72 = APPROVAL_DATE_TIME ( #156, #203 ) ;
#73 = EDGE_LOOP ( 'NONE', ( #51 ) ) ;
#74 = PERSON_AND_ORGANIZATION ( #67, #169 ) ;
#75 = DIRECTION ( 'NONE',  ( 3.491481338843133355E-15, -1.224646799147353207E-16, 1.000000000000000000 ) ) ;
#76 = DATE_AND_TIME ( #91, #186 ) ;
#77 = AXIS2_PLACEMENT_3D ( 'NONE', #30, #58, #62 ) ;
#78 = DIRECTION ( 'NONE',  ( -3.491481338843133355E-15, 1.224646799147353207E-16, -1.000000000000000000 ) ) ;
#79 = DIRECTION ( 'NONE',  ( -3.491481338843133355E-15, 1.224646799147353207E-16, -1.000000000000000000 ) ) ;
#80 = FACE_OUTER_BOUND ( 'NONE', #73, .T. ) ;
#81 = CC_DESIGN_APPROVAL ( #190, ( #85 ) ) ;
#82 = DIRECTION ( 'NONE',  ( 0.0000000000000000000, -1.000000000000000000, 0.0000000000000000000 ) ) ;
#83 = CARTESIAN_POINT ( 'NONE',  ( 1.047444401652940007E-13, -3.673940397442059178E-15, 30.00000000000000000 ) ) ;
#84 =( LENGTH_UNIT ( ) NAMED_UNIT ( * ) SI_UNIT ( .MILLI., .METRE. ) );
#85 = PRODUCT_DEFINITION ( 'UNKNOWN', '', #39, #118 ) ;
#86 = CC_DESIGN_PERSON_AND_ORGANIZATION_ASSIGNMENT ( #42, #176, ( #39 ) ) ;
#87 = APPROVAL_STATUS ( 'not_yet_approved' ) ;
#88 = ORIENTED_EDGE ( 'NONE', *, *, #103, .F. ) ;
#89 = PERSON_AND_ORGANIZATION ( #67, #169 ) ;
#90 = EDGE_LOOP ( 'NONE', ( #88 ) ) ;
#91 = CALENDAR_DATE ( 2021, 7, 10 ) ;
#92 = APPLICATION_CONTEXT ( 'configuration controlled 3d designs of mechanical parts and assemblies' ) ;
#93 = ORIENTED_EDGE ( 'NONE', *, *, #135, .T. ) ;
#94 = ADVANCED_BREP_SHAPE_REPRESENTATION ( '6197', ( #164, #16, #44 ), #178 ) ;
#95 = ADVANCED_FACE ( 'NONE', ( #119 ), #217, .F. ) ;
#96 = DIRECTION ( 'NONE',  ( -3.491481338843133355E-15, 1.224646799147353207E-16, -1.000000000000000000 ) ) ;
#97 = CARTESIAN_POINT ( 'NONE',  ( 3.561026704177514693E-14, 0.7499999999999954481, 10.19918584287042052 ) ) ;
#98 = FACE_OUTER_BOUND ( 'NONE', #71, .T. ) ;
#99 = EDGE_CURVE ( 'NONE', #130, #130, #2, .T. ) ;
#100 = AXIS2_PLACEMENT_3D ( 'NONE', #165, #10, #82 ) ;
#101 = VERTEX_POINT ( 'NONE', #153 ) ;
#102 = VERTEX_POINT ( 'NONE', #97 ) ;
#103 = EDGE_CURVE ( 'NONE', #134, #134, #193, .T. ) ;
#104 = CC_DESIGN_PERSON_AND_ORGANIZATION_ASSIGNMENT ( #108, #57, ( #50 ) ) ;
#105 = APPLICATION_CONTEXT ( 'configuration controlled 3d designs of mechanical parts and assemblies' ) ;
#106 = AXIS2_PLACEMENT_3D ( 'NONE', #218, #202, #47 ) ;
#107 = LOCAL_TIME ( 15, 48, 31.00000000000000000, #143 ) ;
#108 = PERSON_AND_ORGANIZATION ( #67, #169 ) ;
#109 = AXIS2_PLACEMENT_3D ( 'NONE', #122, #75, #146 ) ;
#110 = LOCAL_TIME ( 15, 48, 31.00000000000000000, #5 ) ;
#111 = SHAPE_DEFINITION_REPRESENTATION ( #222, #94 ) ;
#112 = FACE_OUTER_BOUND ( 'NONE', #212, .T. ) ;
#113 = DIRECTION ( 'NONE',  ( -3.491481338843133355E-15, 1.224646799147353207E-16, -1.000000000000000000 ) ) ;
#114 = AXIS2_PLACEMENT_3D ( 'NONE', #12, #150, #43 ) ;
#115 = CARTESIAN_POINT ( 'NONE',  ( 3.561026704177514693E-14, -1.249040029638026118E-15, 10.19918584287042052 ) ) ;
#116 = DIRECTION ( 'NONE',  ( -3.491481338843133355E-15, 1.224646799147353207E-16, -1.000000000000000000 ) ) ;
#117 = DIRECTION ( 'NONE',  ( 0.0000000000000000000, 1.000000000000000000, 0.0000000000000000000 ) ) ;
#118 = DESIGN_CONTEXT ( 'detailed design', #105, 'design' ) ;
#119 = FACE_OUTER_BOUND ( 'NONE', #24, .T. ) ;
#120 = CC_DESIGN_DATE_AND_TIME_ASSIGNMENT ( #214, #189, ( #15 ) ) ;
#121 = CC_DESIGN_APPROVAL ( #203, ( #39 ) ) ;
#122 = CARTESIAN_POINT ( 'NONE',  ( 3.491481338843133355E-14, 4.761737309951380662E-33, 10.00000000000000000 ) ) ;
#123 = AXIS2_PLACEMENT_3D ( 'NONE', #60, #46, #200 ) ;
#124 = APPROVAL_ROLE ( '' ) ;
#125 = ORIENTED_EDGE ( 'NONE', *, *, #209, .T. ) ;
#126 = PERSON_AND_ORGANIZATION_ROLE ( 'creator' ) ;
#127 = CALENDAR_DATE ( 2021, 7, 10 ) ;
#128 = PERSON_AND_ORGANIZATION_ROLE ( 'creator' ) ;
#129 = FACE_OUTER_BOUND ( 'NONE', #139, .T. ) ;
#130 = VERTEX_POINT ( 'NONE', #33 ) ;
#131 = CIRCLE ( 'NONE', #18, 0.7499999999999967804 ) ;
#132 = PLANE ( 'NONE',  #114 ) ;
#133 = DIRECTION ( 'NONE',  ( 0.0000000000000000000, 1.000000000000000000, 0.0000000000000000000 ) ) ;
#134 = VERTEX_POINT ( 'NONE', #204 ) ;
#135 = EDGE_CURVE ( 'NONE', #102, #102, #131, .T. ) ;
#136 = ORIENTED_EDGE ( 'NONE', *, *, #174, .T. ) ;
#137 = AXIS2_PLACEMENT_3D ( 'NONE', #29, #179, #8 ) ;
#138 = APPROVAL_PERSON_ORGANIZATION ( #74, #13, #26 ) ;
#139 = EDGE_LOOP ( 'NONE', ( #136 ) ) ;
#140 = DATE_AND_TIME ( #196, #199 ) ;
#141 = ADVANCED_FACE ( 'NONE', ( #180, #185 ), #215, .T. ) ;
#142 = CIRCLE ( 'NONE', #106, 0.6350000000000000089 ) ;
#143 = COORDINATED_UNIVERSAL_TIME_OFFSET ( 1, 0, .AHEAD. ) ;
#144 = EDGE_LOOP ( 'NONE', ( #207 ) ) ;
#145 = MECHANICAL_CONTEXT ( 'NONE', #92, 'mechanical' ) ;
#146 = DIRECTION ( 'NONE',  ( -4.275831445896958607E-31, -1.000000000000000000, -1.224646799147353207E-16 ) ) ;
#147 = AXIS2_PLACEMENT_3D ( 'NONE', #9, #78, #133 ) ;
#148 = FACE_OUTER_BOUND ( 'NONE', #90, .T. ) ;
#149 = CYLINDRICAL_SURFACE ( 'NONE', #208, 0.6349999999999992317 ) ;
#150 = DIRECTION ( 'NONE',  ( -3.491481338843133355E-15, 1.224646799147353207E-16, -1.000000000000000000 ) ) ;
#151 = CARTESIAN_POINT ( 'NONE',  ( 1.332162460498603763E-15, -4.672596914793863597E-17, 0.3815464930825041012 ) ) ;
#152 = CC_DESIGN_PERSON_AND_ORGANIZATION_ASSIGNMENT ( #161, #126, ( #39 ) ) ;
#153 = CARTESIAN_POINT ( 'NONE',  ( 3.491481338843133355E-14, 0.6349999999999988987, 10.00000000000000000 ) ) ;
#154 = CARTESIAN_POINT ( 'NONE',  ( 3.491481338843133355E-14, 0.6349999999999988987, 10.00000000000000000 ) ) ;
#155 = ADVANCED_FACE ( 'NONE', ( #220, #63 ), #14, .T. ) ;
#156 = DATE_AND_TIME ( #54, #107 ) ;
#157 = DIRECTION ( 'NONE',  ( 1.000000000000000000, 0.0000000000000000000, 0.0000000000000000000 ) ) ;
#158 = LOCAL_TIME ( 15, 48, 31.00000000000000000, #160 ) ;
#159 = ORIENTED_EDGE ( 'NONE', *, *, #103, .T. ) ;
#160 = COORDINATED_UNIVERSAL_TIME_OFFSET ( 1, 0, .AHEAD. ) ;
#161 = PERSON_AND_ORGANIZATION ( #67, #169 ) ;
#162 = FACE_OUTER_BOUND ( 'NONE', #188, .T. ) ;
#163 = AXIS2_PLACEMENT_3D ( 'NONE', #219, #79, #198 ) ;
#164 = MANIFOLD_SOLID_BREP ( 'Corps-Déplacer/Copier1[1]', #184 ) ;
#165 = CARTESIAN_POINT ( 'NONE',  ( 3.561026704177514693E-14, -1.249040029638026118E-15, 10.19918584287042052 ) ) ;
#166 = DIRECTION ( 'NONE',  ( 0.0000000000000000000, 1.000000000000000000, 0.0000000000000000000 ) ) ;
#167 = CLOSED_SHELL ( 'NONE', ( #170, #17, #6 ) ) ;
#168 = DIRECTION ( 'NONE',  ( 3.491481338843133355E-15, -1.224646799147353207E-16, 1.000000000000000000 ) ) ;
#169 = ORGANIZATION ( 'UNSPECIFIED', 'UNSPECIFIED', '' ) ;
#170 = ADVANCED_FACE ( 'NONE', ( #80 ), #53, .T. ) ;
#171 = APPROVAL_ROLE ( '' ) ;
#172 = COORDINATED_UNIVERSAL_TIME_OFFSET ( 1, 0, .AHEAD. ) ;
#173 = PERSON_AND_ORGANIZATION ( #67, #169 ) ;
#174 = EDGE_CURVE ( 'NONE', #183, #183, #223, .T. ) ;
#175 = EDGE_LOOP ( 'NONE', ( #23 ) ) ;
#176 = PERSON_AND_ORGANIZATION_ROLE ( 'design_supplier' ) ;
#177 = EDGE_CURVE ( 'NONE', #101, #101, #48, .T. ) ;
#178 =( GEOMETRIC_REPRESENTATION_CONTEXT ( 3 ) GLOBAL_UNCERTAINTY_ASSIGNED_CONTEXT ( ( #65 ) ) GLOBAL_UNIT_ASSIGNED_CONTEXT ( ( #84, #221, #34 ) ) REPRESENTATION_CONTEXT ( 'NONE', 'WORKASPACE' ) );
#179 = DIRECTION ( 'NONE',  ( 3.491481338843133355E-15, -1.224646799147353207E-16, 1.000000000000000000 ) ) ;
#180 = FACE_OUTER_BOUND ( 'NONE', #175, .T. ) ;
#181 = DIRECTION ( 'NONE',  ( -3.032960542342109922E-31, -1.000000000000000000, -8.537024980200839814E-17 ) ) ;
#182 = CC_DESIGN_PERSON_AND_ORGANIZATION_ASSIGNMENT ( #89, #128, ( #85 ) ) ;
#183 = VERTEX_POINT ( 'NONE', #32 ) ;
#184 = CLOSED_SHELL ( 'NONE', ( #95, #155, #206, #141, #216 ) ) ;
#185 = FACE_BOUND ( 'NONE', #4, .T. ) ;
#186 = LOCAL_TIME ( 15, 48, 31.00000000000000000, #172 ) ;
#187 = APPROVAL_STATUS ( 'not_yet_approved' ) ;
#188 = EDGE_LOOP ( 'NONE', ( #21 ) ) ;
#189 = DATE_TIME_ROLE ( 'classification_date' ) ;
#190 = APPROVAL ( #194, 'UNSPECIFIED' ) ;
#191 = ORIENTED_EDGE ( 'NONE', *, *, #177, .T. ) ;
#192 = APPROVAL_DATE_TIME ( #40, #13 ) ;
#193 = CIRCLE ( 'NONE', #27, 0.5499999999999990452 ) ;
#194 = APPROVAL_STATUS ( 'not_yet_approved' ) ;
#195 = ORIENTED_EDGE ( 'NONE', *, *, #99, .F. ) ;
#196 = CALENDAR_DATE ( 2021, 7, 10 ) ;
#197 = CC_DESIGN_DATE_AND_TIME_ASSIGNMENT ( #76, #20, ( #85 ) ) ;
#198 = DIRECTION ( 'NONE',  ( 4.275831445896958607E-31, 1.000000000000000000, 1.224646799147353207E-16 ) ) ;
#199 = LOCAL_TIME ( 15, 48, 31.00000000000000000, #70 ) ;
#200 = DIRECTION ( 'NONE',  ( 3.032960542342109922E-31, 1.000000000000000000, 8.537024980200839814E-17 ) ) ;
#201 = CARTESIAN_POINT ( 'NONE',  ( 1.047444401652940007E-13, -3.673940397442059178E-15, 30.00000000000000000 ) ) ;
#202 = DIRECTION ( 'NONE',  ( -3.491481338843133355E-15, 1.224646799147353207E-16, -1.000000000000000000 ) ) ;
#203 = APPROVAL ( #87, 'UNSPECIFIED' ) ;
#204 = CARTESIAN_POINT ( 'NONE',  ( 1.047444401652940007E-13, 0.5499999999999953815, 30.00000000000000000 ) ) ;
#205 = VERTEX_POINT ( 'NONE', #154 ) ;
#206 = ADVANCED_FACE ( 'NONE', ( #98, #129 ), #64, .T. ) ;
#207 = ORIENTED_EDGE ( 'NONE', *, *, #177, .F. ) ;
#208 = AXIS2_PLACEMENT_3D ( 'NONE', #49, #116, #28 ) ;
#209 = EDGE_CURVE ( 'NONE', #205, #205, #142, .T. ) ;
#210 = PERSON_AND_ORGANIZATION_ROLE ( 'classification_officer' ) ;
#211 = APPLICATION_PROTOCOL_DEFINITION ( 'international standard', 'config_control_design', 1994, #92 ) ;
#212 = EDGE_LOOP ( 'NONE', ( #195 ) ) ;
#213 = EDGE_LOOP ( 'NONE', ( #125 ) ) ;
#214 = DATE_AND_TIME ( #7, #110 ) ;
#215 = CONICAL_SURFACE ( 'NONE', #38, 0.5499999999999990452, 0.7853981633974604915 ) ;
#216 = ADVANCED_FACE ( 'NONE', ( #148 ), #132, .F. ) ;
#217 = PLANE ( 'NONE',  #137 ) ;
#218 = CARTESIAN_POINT ( 'NONE',  ( 3.491481338843133355E-14, -1.224646799147353256E-15, 10.00000000000000000 ) ) ;
#219 = CARTESIAN_POINT ( 'NONE',  ( 0.0000000000000000000, 0.0000000000000000000, 0.0000000000000000000 ) ) ;
#220 = FACE_BOUND ( 'NONE', #144, .T. ) ;
#221 =( NAMED_UNIT ( * ) PLANE_ANGLE_UNIT ( ) SI_UNIT ( $, .RADIAN. ) );
#222 = PRODUCT_DEFINITION_SHAPE ( 'NONE', 'NONE',  #85 ) ;
#223 = CIRCLE ( 'NONE', #147, 0.7499999999999992228 ) ;
ENDSEC;
END-ISO-10303-21;
