ISO-10303-21;
HEADER;
FILE_DESCRIPTION (( 'STEP AP203' ),
    '1' );
FILE_NAME ('61846.step',
    '2021-11-15T14:47:08',
    ( '' ),
    ( '' ),
    'SwSTEP 2.0',
    'SolidWorks 2019',
    '' );
FILE_SCHEMA (( 'CONFIG_CONTROL_DESIGN' ));
ENDSEC;

DATA;
#1 = AXIS2_PLACEMENT_3D ( 'NONE', #4, #138, #61 ) ;
#2 = ADVANCED_FACE ( 'NONE', ( #3, #157 ), #43, .T. ) ;
#3 = FACE_OUTER_BOUND ( 'NONE', #116, .T. ) ;
#4 = CARTESIAN_POINT ( 'NONE',  ( 4.189777606611758449E-15, -1.734723475976811532E-16, 1.199999999999999734 ) ) ;
#5 = DIRECTION ( 'NONE',  ( 0.0000000000000000000, 1.000000000000000000, 0.0000000000000000000 ) ) ;
#6 = EDGE_LOOP ( 'NONE', ( #99 ) ) ;
#7 = CIRCLE ( 'NONE', #34, 0.1999999999999998168 ) ;
#8 = DIRECTION ( 'NONE',  ( 4.275831445896958607E-31, 1.000000000000000000, 1.224646799147353207E-16 ) ) ;
#9 = VERTEX_POINT ( 'NONE', #240 ) ;
#10 = DIRECTION ( 'NONE',  ( 0.0000000000000000000, 1.000000000000000000, 0.0000000000000000000 ) ) ;
#11 = CC_DESIGN_PERSON_AND_ORGANIZATION_ASSIGNMENT ( #184, #132, ( #127 ) ) ;
#12 = CARTESIAN_POINT ( 'NONE',  ( 3.507898930924408292E-14, -1.249525321010820595E-15, 10.04702185258339497 ) ) ;
#13 = APPROVAL_ROLE ( '' ) ;
#14 = APPROVAL_ROLE ( '' ) ;
#15 = EDGE_LOOP ( 'NONE', ( #113 ) ) ;
#16 = APPROVAL_PERSON_ORGANIZATION ( #128, #71, #14 ) ;
#17 = COORDINATED_UNIVERSAL_TIME_OFFSET ( 1, 0, .AHEAD. ) ;
#18 = ADVANCED_FACE ( 'NONE', ( #177 ), #170, .F. ) ;
#19 = LOCAL_TIME ( 15, 47, 8.000000000000000000, #17 ) ;
#20 = EDGE_LOOP ( 'NONE', ( #77 ) ) ;
#21 = EDGE_LOOP ( 'NONE', ( #41 ) ) ;
#22 = DIRECTION ( 'NONE',  ( -3.491481338843133355E-15, 1.243677319851284845E-16, -1.000000000000000000 ) ) ;
#23 = FACE_OUTER_BOUND ( 'NONE', #175, .T. ) ;
#24 = FACE_BOUND ( 'NONE', #122, .T. ) ;
#25 = ORIENTED_EDGE ( 'NONE', *, *, #63, .T. ) ;
#26 = CARTESIAN_POINT ( 'NONE',  ( 1.326762908760390170E-13, 1.199999999999987521, 37.99999999999999289 ) ) ;
#27 = APPROVAL ( #150, 'UNSPECIFIED' ) ;
#28 = CARTESIAN_POINT ( 'NONE',  ( 2.204860355900255513E-14, -1.499999999999990674, 6.314971045014416084 ) ) ;
#29 = FACE_OUTER_BOUND ( 'NONE', #131, .T. ) ;
#30 =( NAMED_UNIT ( * ) SI_UNIT ( $, .STERADIAN. ) SOLID_ANGLE_UNIT ( ) );
#31 = DATE_TIME_ROLE ( 'creation_date' ) ;
#32 = ORIENTED_EDGE ( 'NONE', *, *, #109, .F. ) ;
#33 = CALENDAR_DATE ( 2021, 15, 11 ) ;
#34 = AXIS2_PLACEMENT_3D ( 'NONE', #192, #152, #229 ) ;
#35 = SECURITY_CLASSIFICATION ( '', '', #243 ) ;
#36 = DESIGN_CONTEXT ( 'detailed design', #98, 'design' ) ;
#37 = EDGE_CURVE ( 'NONE', #9, #9, #171, .T. ) ;
#38 = ORIENTED_EDGE ( 'NONE', *, *, #220, .F. ) ;
#39 = CONICAL_SURFACE ( 'NONE', #133, 1.199999999999992184, 0.7853981633974338461 ) ;
#40 = DIRECTION ( 'NONE',  ( 4.275831445896959482E-31, 1.000000000000000000, 1.224646799147353207E-16 ) ) ;
#41 = ORIENTED_EDGE ( 'NONE', *, *, #160, .F. ) ;
#42 = DIRECTION ( 'NONE',  ( -3.491481338843133355E-15, 1.224646799147353207E-16, -1.000000000000000000 ) ) ;
#43 = CYLINDRICAL_SURFACE ( 'NONE', #51, 1.499999999999989786 ) ;
#44 = ADVANCED_FACE ( 'NONE', ( #154 ), #231, .F. ) ;
#45 = ORIENTED_EDGE ( 'NONE', *, *, #115, .F. ) ;
#46 = DIRECTION ( 'NONE',  ( -4.405503045239535826E-31, -1.000000000000000000, -1.243677319851284845E-16 ) ) ;
#47 = PERSON ( 'UNSPECIFIED', 'UNSPECIFIED', 'UNSPECIFIED', ('UNSPECIFIED'), ('UNSPECIFIED'), ('UNSPECIFIED') ) ;
#48 = SHAPE_DEFINITION_REPRESENTATION ( #66, #149 ) ;
#49 = FACE_OUTER_BOUND ( 'NONE', #15, .T. ) ;
#50 = APPLICATION_PROTOCOL_DEFINITION ( 'international standard', 'config_control_design', 1994, #98 ) ;
#51 = AXIS2_PLACEMENT_3D ( 'NONE', #235, #42, #40 ) ;
#52 = PERSON_AND_ORGANIZATION ( #47, #124 ) ;
#53 = MANIFOLD_SOLID_BREP ( 'Corps-Déplacer/Copier1[1]', #140 ) ;
#54 = COORDINATED_UNIVERSAL_TIME_OFFSET ( 1, 0, .AHEAD. ) ;
#55 = CLOSED_SHELL ( 'NONE', ( #134, #193, #44 ) ) ;
#56 = ADVANCED_FACE ( 'NONE', ( #23 ), #174, .F. ) ;
#57 = APPROVAL_STATUS ( 'not_yet_approved' ) ;
#58 = ORIENTED_EDGE ( 'NONE', *, *, #160, .T. ) ;
#59 = FACE_OUTER_BOUND ( 'NONE', #21, .T. ) ;
#60 = DIRECTION ( 'NONE',  ( -3.491481338843133355E-15, 1.224646799147353207E-16, -1.000000000000000000 ) ) ;
#61 = DIRECTION ( 'NONE',  ( -4.275831445896958607E-31, -1.000000000000000000, -1.224646799147353207E-16 ) ) ;
#62 = AXIS2_PLACEMENT_3D ( 'NONE', #139, #110, #10 ) ;
#63 = EDGE_CURVE ( 'NONE', #70, #70, #7, .T. ) ;
#64 = CARTESIAN_POINT ( 'NONE',  ( 4.189777606611758449E-15, -1.734723475976811532E-16, 1.199999999999999734 ) ) ;
#65 = FACE_OUTER_BOUND ( 'NONE', #187, .T. ) ;
#66 = PRODUCT_DEFINITION_SHAPE ( 'NONE', 'NONE',  #127 ) ;
#67 = CARTESIAN_POINT ( 'NONE',  ( 5.997101338837014041E-15, -0.2681483474218601115, 1.717638090205027890 ) ) ;
#68 = CIRCLE ( 'NONE', #97, 1.199999999999992184 ) ;
#69 = DIRECTION ( 'NONE',  ( 3.491481338843133355E-15, -1.243677319851284845E-16, 1.000000000000000000 ) ) ;
#70 = VERTEX_POINT ( 'NONE', #217 ) ;
#71 = APPROVAL ( #57, 'UNSPECIFIED' ) ;
#72 = DATE_AND_TIME ( #148, #85 ) ;
#73 = LOCAL_TIME ( 15, 47, 8.000000000000000000, #112 ) ;
#74 = PERSON_AND_ORGANIZATION_ROLE ( 'creator' ) ;
#75 = DATE_AND_TIME ( #33, #183 ) ;
#76 = DIRECTION ( 'NONE',  ( -4.275831445896958607E-31, -1.000000000000000000, -1.224646799147353207E-16 ) ) ;
#77 = ORIENTED_EDGE ( 'NONE', *, *, #37, .T. ) ;
#78 = DIRECTION ( 'NONE',  ( -4.275831445896958607E-31, -1.000000000000000000, -1.224646799147353207E-16 ) ) ;
#79 = EDGE_CURVE ( 'NONE', #126, #126, #201, .T. ) ;
#80 = EDGE_LOOP ( 'NONE', ( #215 ) ) ;
#81 = APPROVAL_PERSON_ORGANIZATION ( #130, #168, #223 ) ;
#82 = PERSON_AND_ORGANIZATION ( #47, #124 ) ;
#83 = FACE_OUTER_BOUND ( 'NONE', #20, .T. ) ;
#84 = AXIS2_PLACEMENT_3D ( 'NONE', #121, #191, #78 ) ;
#85 = LOCAL_TIME ( 15, 47, 8.000000000000000000, #164 ) ;
#86 = DIRECTION ( 'NONE',  ( 1.000000000000000000, 0.0000000000000000000, 0.0000000000000000000 ) ) ;
#87 = DIRECTION ( 'NONE',  ( 0.0000000000000000000, -1.000000000000000000, 0.0000000000000000000 ) ) ;
#88 = ADVANCED_FACE ( 'NONE', ( #59, #24 ), #39, .T. ) ;
#89 = DATE_AND_TIME ( #93, #19 ) ;
#90 = APPROVAL_STATUS ( 'not_yet_approved' ) ;
#91 = CC_DESIGN_APPROVAL ( #27, ( #197 ) ) ;
#92 = ORIENTED_EDGE ( 'NONE', *, *, #109, .T. ) ;
#93 = CALENDAR_DATE ( 2021, 15, 11 ) ;
#94 = TOROIDAL_SURFACE ( 'NONE', #234, 2.199999999999999734, 2.000000000000000000 ) ;
#95 = DIRECTION ( 'NONE',  ( 0.0000000000000000000, 1.000000000000000000, 0.0000000000000000000 ) ) ;
#96 = DIRECTION ( 'NONE',  ( 0.0000000000000000000, -1.000000000000000000, 0.0000000000000000000 ) ) ;
#97 = AXIS2_PLACEMENT_3D ( 'NONE', #137, #156, #95 ) ;
#98 = APPLICATION_CONTEXT ( 'configuration controlled 3d designs of mechanical parts and assemblies' ) ;
#99 = ORIENTED_EDGE ( 'NONE', *, *, #79, .T. ) ;
#100 = CC_DESIGN_PERSON_AND_ORGANIZATION_ASSIGNMENT ( #241, #166, ( #197 ) ) ;
#101 = ORIENTED_EDGE ( 'NONE', *, *, #79, .F. ) ;
#102 = DIRECTION ( 'NONE',  ( 3.491481338843133355E-15, -1.243677319851284845E-16, 1.000000000000000000 ) ) ;
#103 = AXIS2_PLACEMENT_3D ( 'NONE', #12, #238, #87 ) ;
#104 = DATE_AND_TIME ( #106, #120 ) ;
#105 = APPLICATION_PROTOCOL_DEFINITION ( 'international standard', 'config_control_design', 1994, #227 ) ;
#106 = CALENDAR_DATE ( 2021, 15, 11 ) ;
#107 = CIRCLE ( 'NONE', #169, 1.499999999999989786 ) ;
#108 = CARTESIAN_POINT ( 'NONE',  ( 4.189777606611756871E-15, 0.0000000000000000000, 1.199999999999999067 ) ) ;
#109 = EDGE_CURVE ( 'NONE', #198, #198, #68, .T. ) ;
#110 = DIRECTION ( 'NONE',  ( -3.491481338843133355E-15, 1.224646799147353207E-16, -1.000000000000000000 ) ) ;
#111 = PERSON_AND_ORGANIZATION ( #47, #124 ) ;
#112 = COORDINATED_UNIVERSAL_TIME_OFFSET ( 1, 0, .AHEAD. ) ;
#113 = ORIENTED_EDGE ( 'NONE', *, *, #115, .T. ) ;
#114 = ORIENTED_EDGE ( 'NONE', *, *, #63, .F. ) ;
#115 = EDGE_CURVE ( 'NONE', #143, #143, #107, .T. ) ;
#116 = EDGE_LOOP ( 'NONE', ( #58 ) ) ;
#117 = CARTESIAN_POINT ( 'NONE',  ( -8.684552307606403795E-32, -1.975226850141292364E-32, -2.487354639702568642E-17 ) ) ;
#118 = EDGE_LOOP ( 'NONE', ( #45 ) ) ;
#119 = AXIS2_PLACEMENT_3D ( 'NONE', #64, #141, #76 ) ;
#120 = LOCAL_TIME ( 15, 47, 8.000000000000000000, #54 ) ;
#121 = CARTESIAN_POINT ( 'NONE',  ( -2.137917073001454058E-30, 7.498803648657679327E-32, -6.123237862442165323E-16 ) ) ;
#122 = EDGE_LOOP ( 'NONE', ( #92 ) ) ;
#123 = DIRECTION ( 'NONE',  ( 0.0000000000000000000, 0.0000000000000000000, 1.000000000000000000 ) ) ;
#124 = ORGANIZATION ( 'UNSPECIFIED', 'UNSPECIFIED', '' ) ;
#125 = APPROVAL_DATE_TIME ( #104, #168 ) ;
#126 = VERTEX_POINT ( 'NONE', #142 ) ;
#127 = PRODUCT_DEFINITION ( 'UNKNOWN', '', #197, #36 ) ;
#128 = PERSON_AND_ORGANIZATION ( #47, #124 ) ;
#129 = AXIS2_PLACEMENT_3D ( 'NONE', #199, #218, #161 ) ;
#130 = PERSON_AND_ORGANIZATION ( #47, #124 ) ;
#131 = EDGE_LOOP ( 'NONE', ( #38 ) ) ;
#132 = PERSON_AND_ORGANIZATION_ROLE ( 'creator' ) ;
#133 = AXIS2_PLACEMENT_3D ( 'NONE', #212, #210, #5 ) ;
#134 = ADVANCED_FACE ( 'NONE', ( #172 ), #233, .T. ) ;
#135 = MANIFOLD_SOLID_BREP ( 'Corps-Déplacer/Copier1[2]', #55 ) ;
#136 = DIRECTION ( 'NONE',  ( -4.342276153803203868E-31, -1.000000000000000000, -1.243677319851284845E-16 ) ) ;
#137 = CARTESIAN_POINT ( 'NONE',  ( 1.326762908760390170E-13, -4.653657836759941152E-15, 37.99999999999999289 ) ) ;
#138 = DIRECTION ( 'NONE',  ( 3.491481338843133355E-15, -1.224646799147353207E-16, 1.000000000000000000 ) ) ;
#139 = CARTESIAN_POINT ( 'NONE',  ( 1.316288464743860707E-13, -4.616918432785519503E-15, 37.69999999999998153 ) ) ;
#140 = CLOSED_SHELL ( 'NONE', ( #2, #88, #56, #203, #176, #18 ) ) ;
#141 = DIRECTION ( 'NONE',  ( 3.491481338843133355E-15, -1.224646799147353207E-16, 1.000000000000000000 ) ) ;
#142 = CARTESIAN_POINT ( 'NONE',  ( -1.736910461521280540E-31, -0.1999999999999998723, -4.974709279405136669E-17 ) ) ;
#143 = VERTEX_POINT ( 'NONE', #28 ) ;
#144 = CC_DESIGN_DATE_AND_TIME_ASSIGNMENT ( #167, #31, ( #127 ) ) ;
#145 =( LENGTH_UNIT ( ) NAMED_UNIT ( * ) SI_UNIT ( .MILLI., .METRE. ) );
#146 = VERTEX_POINT ( 'NONE', #195 ) ;
#147 = APPROVAL_DATE_TIME ( #89, #27 ) ;
#148 = CALENDAR_DATE ( 2021, 15, 11 ) ;
#149 = ADVANCED_BREP_SHAPE_REPRESENTATION ( '61846', ( #53, #135, #196 ), #165 ) ;
#150 = APPROVAL_STATUS ( 'not_yet_approved' ) ;
#151 = PRODUCT_RELATED_PRODUCT_CATEGORY ( 'detail', '', ( #200 ) ) ;
#152 = DIRECTION ( 'NONE',  ( 3.491481338843133355E-15, -1.243677319851284845E-16, 1.000000000000000000 ) ) ;
#153 = AXIS2_PLACEMENT_3D ( 'NONE', #236, #163, #179 ) ;
#154 = FACE_OUTER_BOUND ( 'NONE', #224, .T. ) ;
#155 = CC_DESIGN_APPROVAL ( #71, ( #127 ) ) ;
#156 = DIRECTION ( 'NONE',  ( -3.491481338843133355E-15, 1.224646799147353207E-16, -1.000000000000000000 ) ) ;
#157 = FACE_OUTER_BOUND ( 'NONE', #118, .T. ) ;
#158 = CIRCLE ( 'NONE', #62, 1.499999999999992006 ) ;
#159 = CC_DESIGN_SECURITY_CLASSIFICATION ( #35, ( #197 ) ) ;
#160 = EDGE_CURVE ( 'NONE', #146, #146, #158, .T. ) ;
#161 = DIRECTION ( 'NONE',  ( -4.342276153803203868E-31, -1.000000000000000000, -1.243677319851285338E-16 ) ) ;
#162 = FACE_OUTER_BOUND ( 'NONE', #6, .T. ) ;
#163 = DIRECTION ( 'NONE',  ( 3.491481338843133355E-15, -1.243677319851284845E-16, 1.000000000000000000 ) ) ;
#164 = COORDINATED_UNIVERSAL_TIME_OFFSET ( 1, 0, .AHEAD. ) ;
#165 =( GEOMETRIC_REPRESENTATION_CONTEXT ( 3 ) GLOBAL_UNCERTAINTY_ASSIGNED_CONTEXT ( ( #226 ) ) GLOBAL_UNIT_ASSIGNED_CONTEXT ( ( #145, #202, #30 ) ) REPRESENTATION_CONTEXT ( 'NONE', 'WORKASPACE' ) );
#166 = PERSON_AND_ORGANIZATION_ROLE ( 'design_supplier' ) ;
#167 = DATE_AND_TIME ( #204, #73 ) ;
#168 = APPROVAL ( #90, 'UNSPECIFIED' ) ;
#169 = AXIS2_PLACEMENT_3D ( 'NONE', #190, #22, #96 ) ;
#170 = PLANE ( 'NONE',  #119 ) ;
#171 = CIRCLE ( 'NONE', #222, 0.1999999999999998168 ) ;
#172 = FACE_OUTER_BOUND ( 'NONE', #186, .T. ) ;
#173 = APPROVAL_PERSON_ORGANIZATION ( #52, #27, #13 ) ;
#174 = PLANE ( 'NONE',  #206 ) ;
#175 = EDGE_LOOP ( 'NONE', ( #32 ) ) ;
#176 = ADVANCED_FACE ( 'NONE', ( #83, #29 ), #94, .F. ) ;
#177 = FACE_OUTER_BOUND ( 'NONE', #80, .T. ) ;
#178 = MECHANICAL_CONTEXT ( 'NONE', #227, 'mechanical' ) ;
#179 = DIRECTION ( 'NONE',  ( 0.0000000000000000000, -1.000000000000000000, 0.0000000000000000000 ) ) ;
#180 = CYLINDRICAL_SURFACE ( 'NONE', #129, 0.1999999999999998446 ) ;
#181 = FACE_BOUND ( 'NONE', #207, .T. ) ;
#182 = DATE_TIME_ROLE ( 'classification_date' ) ;
#183 = LOCAL_TIME ( 15, 47, 8.000000000000000000, #205 ) ;
#184 = PERSON_AND_ORGANIZATION ( #47, #124 ) ;
#185 = CC_DESIGN_PERSON_AND_ORGANIZATION_ASSIGNMENT ( #82, #219, ( #200 ) ) ;
#186 = EDGE_LOOP ( 'NONE', ( #25 ) ) ;
#187 = EDGE_LOOP ( 'NONE', ( #114 ) ) ;
#188 = CIRCLE ( 'NONE', #153, 0.2681483474218598895 ) ;
#189 = CARTESIAN_POINT ( 'NONE',  ( 1.326762908760390170E-13, 8.998558695971017012E-33, 37.99999999999999289 ) ) ;
#190 = CARTESIAN_POINT ( 'NONE',  ( 2.204860355900255513E-14, -7.853786264201996048E-16, 6.314971045014416084 ) ) ;
#191 = DIRECTION ( 'NONE',  ( 3.491481338843133355E-15, -1.224646799147353207E-16, 1.000000000000000000 ) ) ;
#192 = CARTESIAN_POINT ( 'NONE',  ( 4.189777606611756871E-15, -1.492412783821541124E-16, 1.199999999999999289 ) ) ;
#193 = ADVANCED_FACE ( 'NONE', ( #162, #65 ), #180, .T. ) ;
#194 = ORIENTED_EDGE ( 'NONE', *, *, #220, .T. ) ;
#195 = CARTESIAN_POINT ( 'NONE',  ( 1.316288464743860707E-13, 1.499999999999987566, 37.69999999999998153 ) ) ;
#196 = AXIS2_PLACEMENT_3D ( 'NONE', #237, #123, #86 ) ;
#197 = PRODUCT_DEFINITION_FORMATION_WITH_SPECIFIED_SOURCE ( 'ANY', '', #200, .NOT_KNOWN. ) ;
#198 = VERTEX_POINT ( 'NONE', #26 ) ;
#199 = CARTESIAN_POINT ( 'NONE',  ( -6.413677916074933265E-31, 0.0000000000000000000, -1.836950363939232727E-16 ) ) ;
#200 = PRODUCT ( '61846', '61846', '', ( #178 ) ) ;
#201 = CIRCLE ( 'NONE', #214, 0.1999999999999998723 ) ;
#202 =( NAMED_UNIT ( * ) PLANE_ANGLE_UNIT ( ) SI_UNIT ( $, .RADIAN. ) );
#203 = ADVANCED_FACE ( 'NONE', ( #181, #49 ), #208, .T. ) ;
#204 = CALENDAR_DATE ( 2021, 15, 11 ) ;
#205 = COORDINATED_UNIVERSAL_TIME_OFFSET ( 1, 0, .AHEAD. ) ;
#206 = AXIS2_PLACEMENT_3D ( 'NONE', #189, #60, #8 ) ;
#207 = EDGE_LOOP ( 'NONE', ( #194 ) ) ;
#208 = CONICAL_SURFACE ( 'NONE', #103, 2.499999999999991118, 0.2617993877991429130 ) ;
#209 = CC_DESIGN_APPROVAL ( #168, ( #35 ) ) ;
#210 = DIRECTION ( 'NONE',  ( -3.491481338843133355E-15, 1.224646799147353207E-16, -1.000000000000000000 ) ) ;
#211 = DIRECTION ( 'NONE',  ( 0.0000000000000000000, -1.000000000000000000, 0.0000000000000000000 ) ) ;
#212 = CARTESIAN_POINT ( 'NONE',  ( 1.326762908760390170E-13, -4.653657836759941152E-15, 37.99999999999999289 ) ) ;
#213 = CC_DESIGN_DATE_AND_TIME_ASSIGNMENT ( #72, #182, ( #35 ) ) ;
#214 = AXIS2_PLACEMENT_3D ( 'NONE', #117, #230, #136 ) ;
#215 = ORIENTED_EDGE ( 'NONE', *, *, #37, .F. ) ;
#216 = CARTESIAN_POINT ( 'NONE',  ( 4.189777606611756871E-15, -1.492412783821541124E-16, 1.199999999999999289 ) ) ;
#217 = CARTESIAN_POINT ( 'NONE',  ( 4.189777606611756871E-15, -0.1999999999999999833, 1.199999999999999289 ) ) ;
#218 = DIRECTION ( 'NONE',  ( 3.491481338843133355E-15, -1.243677319851284845E-16, 1.000000000000000000 ) ) ;
#219 = PERSON_AND_ORGANIZATION_ROLE ( 'design_owner' ) ;
#220 = EDGE_CURVE ( 'NONE', #221, #221, #188, .T. ) ;
#221 = VERTEX_POINT ( 'NONE', #67 ) ;
#222 = AXIS2_PLACEMENT_3D ( 'NONE', #216, #102, #211 ) ;
#223 = APPROVAL_ROLE ( '' ) ;
#224 = EDGE_LOOP ( 'NONE', ( #101 ) ) ;
#225 = PERSON_AND_ORGANIZATION_ROLE ( 'classification_officer' ) ;
#226 = UNCERTAINTY_MEASURE_WITH_UNIT (LENGTH_MEASURE( 1.000000000000000082E-05 ), #145, 'distance_accuracy_value', 'NONE');
#227 = APPLICATION_CONTEXT ( 'configuration controlled 3d designs of mechanical parts and assemblies' ) ;
#228 = APPROVAL_DATE_TIME ( #75, #71 ) ;
#229 = DIRECTION ( 'NONE',  ( 0.0000000000000000000, -1.000000000000000000, 0.0000000000000000000 ) ) ;
#230 = DIRECTION ( 'NONE',  ( 3.491481338843133355E-15, -1.243677319851284845E-16, 1.000000000000000000 ) ) ;
#231 = PLANE ( 'NONE',  #84 ) ;
#232 = CC_DESIGN_PERSON_AND_ORGANIZATION_ASSIGNMENT ( #111, #74, ( #197 ) ) ;
#233 = PLANE ( 'NONE',  #1 ) ;
#234 = AXIS2_PLACEMENT_3D ( 'NONE', #108, #69, #46 ) ;
#235 = CARTESIAN_POINT ( 'NONE',  ( 0.0000000000000000000, 0.0000000000000000000, 0.0000000000000000000 ) ) ;
#236 = CARTESIAN_POINT ( 'NONE',  ( 5.997101338837014041E-15, -2.136187536500668893E-16, 1.717638090205027890 ) ) ;
#237 = CARTESIAN_POINT ( 'NONE',  ( 0.0000000000000000000, 0.0000000000000000000, 0.0000000000000000000 ) ) ;
#238 = DIRECTION ( 'NONE',  ( 3.491481338843133355E-15, -1.243677319851284845E-16, 1.000000000000000000 ) ) ;
#239 = CC_DESIGN_PERSON_AND_ORGANIZATION_ASSIGNMENT ( #242, #225, ( #35 ) ) ;
#240 = CARTESIAN_POINT ( 'NONE',  ( 4.189777606611756871E-15, -0.1999999999999999833, 1.199999999999999289 ) ) ;
#241 = PERSON_AND_ORGANIZATION ( #47, #124 ) ;
#242 = PERSON_AND_ORGANIZATION ( #47, #124 ) ;
#243 = SECURITY_CLASSIFICATION_LEVEL ( 'unclassified' ) ;
ENDSEC;
END-ISO-10303-21;
