ISO-10303-21;
HEADER;
FILE_DESCRIPTION (( 'STEP AP203' ),
    '1' );
FILE_NAME ('61845.step',
    '2021-11-01T12:23:47',
    ( '' ),
    ( '' ),
    'SwSTEP 2.0',
    'SolidWorks 2019',
    '' );
FILE_SCHEMA (( 'CONFIG_CONTROL_DESIGN' ));
ENDSEC;

DATA;
#1 = FACE_OUTER_BOUND ( 'NONE', #110, .T. ) ;
#2 = CARTESIAN_POINT ( 'NONE',  ( -8.551680453529350800E-31, 2.999525725151307090E-32, -2.449298628175645296E-16 ) ) ;
#3 = PLANE ( 'NONE',  #212 ) ;
#4 = PRODUCT_DEFINITION_FORMATION_WITH_SPECIFIED_SOURCE ( 'ANY', '', #125, .NOT_KNOWN. ) ;
#5 = LOCAL_TIME ( 13, 23, 47.00000000000000000, #107 ) ;
#6 = APPLICATION_PROTOCOL_DEFINITION ( 'international standard', 'config_control_design', 1994, #187 ) ;
#7 = CALENDAR_DATE ( 2021, 1, 11 ) ;
#8 = VERTEX_POINT ( 'NONE', #68 ) ;
#9 = PRODUCT_DEFINITION_SHAPE ( 'NONE', 'NONE',  #45 ) ;
#10 = ORGANIZATION ( 'UNSPECIFIED', 'UNSPECIFIED', '' ) ;
#11 = CC_DESIGN_APPROVAL ( #17, ( #207 ) ) ;
#12 = PERSON_AND_ORGANIZATION ( #199, #10 ) ;
#13 = DIRECTION ( 'NONE',  ( 3.491481338843133355E-15, -1.219242935835426903E-16, 1.000000000000000000 ) ) ;
#14 = APPLICATION_CONTEXT ( 'configuration controlled 3d designs of mechanical parts and assemblies' ) ;
#15 = ORIENTED_EDGE ( 'NONE', *, *, #140, .T. ) ;
#16 = PERSON_AND_ORGANIZATION_ROLE ( 'design_supplier' ) ;
#17 = APPROVAL ( #108, 'UNSPECIFIED' ) ;
#18 = FACE_OUTER_BOUND ( 'NONE', #31, .T. ) ;
#19 = AXIS2_PLACEMENT_3D ( 'NONE', #188, #172, #133 ) ;
#20 = DIRECTION ( 'NONE',  ( 3.491481338843133355E-15, -1.219242935835426903E-16, 1.000000000000000000 ) ) ;
#21 = CARTESIAN_POINT ( 'NONE',  ( 2.363230401556606323E-14, -8.252520042980146532E-16, 6.768560883500636116 ) ) ;
#22 = DIRECTION ( 'NONE',  ( 3.491481338843133355E-15, -1.219242935835426903E-16, 1.000000000000000000 ) ) ;
#23 = DIRECTION ( 'NONE',  ( 4.275831445896958607E-31, 1.000000000000000000, 1.224646799147352961E-16 ) ) ;
#24 = EDGE_CURVE ( 'NONE', #157, #157, #37, .T. ) ;
#25 = CARTESIAN_POINT ( 'NONE',  ( 1.326762908760390423E-13, -4.653657836759941941E-15, 38.00000000000000000 ) ) ;
#26 = AXIS2_PLACEMENT_3D ( 'NONE', #25, #234, #229 ) ;
#27 = APPROVAL_DATE_TIME ( #44, #17 ) ;
#28 = ADVANCED_FACE ( 'NONE', ( #127, #81 ), #82, .F. ) ;
#29 = APPROVAL_PERSON_ORGANIZATION ( #143, #47, #162 ) ;
#30 = PERSON_AND_ORGANIZATION ( #199, #10 ) ;
#31 = EDGE_LOOP ( 'NONE', ( #36 ) ) ;
#32 = DIRECTION ( 'NONE',  ( -4.256963957985706261E-31, -1.000000000000000000, -1.219242935835425917E-16 ) ) ;
#33 = EDGE_CURVE ( 'NONE', #8, #8, #201, .T. ) ;
#34 = DIRECTION ( 'NONE',  ( 4.275831445896958607E-31, 1.000000000000000000, 1.224646799147353207E-16 ) ) ;
#35 = CARTESIAN_POINT ( 'NONE',  ( 8.379555213223518475E-15, 1.124819836996387185E-32, 2.399999999999999911 ) ) ;
#36 = ORIENTED_EDGE ( 'NONE', *, *, #24, .T. ) ;
#37 = CIRCLE ( 'NONE', #95, 0.3999999999999999667 ) ;
#38 = AXIS2_PLACEMENT_3D ( 'NONE', #230, #86, #64 ) ;
#39 = CARTESIAN_POINT ( 'NONE',  ( 1.326762908760390423E-13, -4.653657836759941941E-15, 38.00000000000000000 ) ) ;
#40 = ORIENTED_EDGE ( 'NONE', *, *, #169, .F. ) ;
#41 = COORDINATED_UNIVERSAL_TIME_OFFSET ( 1, 0, .AHEAD. ) ;
#42 = APPROVAL_DATE_TIME ( #232, #165 ) ;
#43 = CARTESIAN_POINT ( 'NONE',  ( 1.316288464743861212E-13, 1.499999999999992228, 37.69999999999999574 ) ) ;
#44 = DATE_AND_TIME ( #163, #5 ) ;
#45 = PRODUCT_DEFINITION ( 'UNKNOWN', '', #4, #49 ) ;
#46 = APPROVAL_STATUS ( 'not_yet_approved' ) ;
#47 = APPROVAL ( #46, 'UNSPECIFIED' ) ;
#48 = DATE_TIME_ROLE ( 'classification_date' ) ;
#49 = DESIGN_CONTEXT ( 'detailed design', #14, 'design' ) ;
#50 = PERSON_AND_ORGANIZATION_ROLE ( 'creator' ) ;
#51 = PLANE ( 'NONE',  #183 ) ;
#52 = AXIS2_PLACEMENT_3D ( 'NONE', #170, #22, #117 ) ;
#53 = FACE_OUTER_BOUND ( 'NONE', #132, .T. ) ;
#54 = ORIENTED_EDGE ( 'NONE', *, *, #69, .T. ) ;
#55 = PLANE ( 'NONE',  #167 ) ;
#56 = EDGE_LOOP ( 'NONE', ( #40 ) ) ;
#57 = DIRECTION ( 'NONE',  ( 0.0000000000000000000, -1.000000000000000000, 0.0000000000000000000 ) ) ;
#58 = CARTESIAN_POINT ( 'NONE',  ( -2.521989365909838646E-30, 8.806914373073754917E-32, -7.223264629406480293E-16 ) ) ;
#59 = AXIS2_PLACEMENT_3D ( 'NONE', #114, #242, #77 ) ;
#60 = APPROVAL_PERSON_ORGANIZATION ( #139, #165, #161 ) ;
#61 = ADVANCED_FACE ( 'NONE', ( #186 ), #55, .F. ) ;
#62 = DIRECTION ( 'NONE',  ( -3.491481338843133355E-15, 1.219242935835426903E-16, -1.000000000000000000 ) ) ;
#63 = VERTEX_POINT ( 'NONE', #43 ) ;
#64 = DIRECTION ( 'NONE',  ( 1.000000000000000000, 0.0000000000000000000, 0.0000000000000000000 ) ) ;
#65 = CC_DESIGN_PERSON_AND_ORGANIZATION_ASSIGNMENT ( #85, #231, ( #125 ) ) ;
#66 = AXIS2_PLACEMENT_3D ( 'NONE', #35, #129, #204 ) ;
#67 = APPLICATION_PROTOCOL_DEFINITION ( 'international standard', 'config_control_design', 1994, #14 ) ;
#68 = CARTESIAN_POINT ( 'NONE',  ( 1.326762908760390423E-13, 1.199999999999991962, 38.00000000000000000 ) ) ;
#69 = EDGE_CURVE ( 'NONE', #141, #141, #171, .T. ) ;
#70 = CLOSED_SHELL ( 'NONE', ( #233, #243, #61, #130, #28, #203 ) ) ;
#71 = CONICAL_SURFACE ( 'NONE', #26, 1.199999999999996403, 0.7853981633974461696 ) ;
#72 = SHAPE_DEFINITION_REPRESENTATION ( #9, #166 ) ;
#73 = ORIENTED_EDGE ( 'NONE', *, *, #140, .F. ) ;
#74 = PERSON_AND_ORGANIZATION ( #199, #10 ) ;
#75 = CC_DESIGN_PERSON_AND_ORGANIZATION_ASSIGNMENT ( #74, #50, ( #4 ) ) ;
#76 = AXIS2_PLACEMENT_3D ( 'NONE', #225, #13, #227 ) ;
#77 = DIRECTION ( 'NONE',  ( -4.256963957985708889E-31, -1.000000000000000000, -1.219242935835426903E-16 ) ) ;
#78 = EDGE_LOOP ( 'NONE', ( #181 ) ) ;
#79 = CYLINDRICAL_SURFACE ( 'NONE', #103, 1.499999999999994671 ) ;
#80 = PERSON_AND_ORGANIZATION ( #199, #10 ) ;
#81 = FACE_OUTER_BOUND ( 'NONE', #239, .T. ) ;
#82 = TOROIDAL_SURFACE ( 'NONE', #76, 2.400000000000000355, 2.000000000000000000 ) ;
#83 = FACE_OUTER_BOUND ( 'NONE', #224, .T. ) ;
#84 = CC_DESIGN_PERSON_AND_ORGANIZATION_ASSIGNMENT ( #191, #101, ( #45 ) ) ;
#85 = PERSON_AND_ORGANIZATION ( #199, #10 ) ;
#86 = DIRECTION ( 'NONE',  ( 0.0000000000000000000, 0.0000000000000000000, 1.000000000000000000 ) ) ;
#87 = VERTEX_POINT ( 'NONE', #195 ) ;
#88 = APPROVAL_ROLE ( '' ) ;
#89 = DATE_AND_TIME ( #7, #194 ) ;
#90 = ORIENTED_EDGE ( 'NONE', *, *, #169, .T. ) ;
#91 = APPROVAL_DATE_TIME ( #179, #47 ) ;
#92 = ORIENTED_EDGE ( 'NONE', *, *, #113, .F. ) ;
#93 = DIRECTION ( 'NONE',  ( 3.491481338843133355E-15, -1.219242935835426903E-16, 1.000000000000000000 ) ) ;
#94 = CYLINDRICAL_SURFACE ( 'NONE', #59, 0.3999999999999997446 ) ;
#95 = AXIS2_PLACEMENT_3D ( 'NONE', #58, #20, #32 ) ;
#96 = CARTESIAN_POINT ( 'NONE',  ( 8.379555213223518475E-15, 1.124819836996387185E-32, 2.399999999999999911 ) ) ;
#97 = SECURITY_CLASSIFICATION_LEVEL ( 'unclassified' ) ;
#98 = DIRECTION ( 'NONE',  ( 0.0000000000000000000, -1.000000000000000000, 0.0000000000000000000 ) ) ;
#99 = DIRECTION ( 'NONE',  ( 3.491481338843133355E-15, -1.219242935835426903E-16, 1.000000000000000000 ) ) ;
#100 = AXIS2_PLACEMENT_3D ( 'NONE', #39, #156, #116 ) ;
#101 = PERSON_AND_ORGANIZATION_ROLE ( 'creator' ) ;
#102 = CIRCLE ( 'NONE', #19, 0.3999999999999995781 ) ;
#103 = AXIS2_PLACEMENT_3D ( 'NONE', #154, #120, #23 ) ;
#104 = LOCAL_TIME ( 13, 23, 47.00000000000000000, #235 ) ;
#105 = CIRCLE ( 'NONE', #160, 0.3999999999999995781 ) ;
#106 = AXIS2_PLACEMENT_3D ( 'NONE', #131, #93, #57 ) ;
#107 = COORDINATED_UNIVERSAL_TIME_OFFSET ( 1, 0, .AHEAD. ) ;
#108 = APPROVAL_STATUS ( 'not_yet_approved' ) ;
#109 = ADVANCED_FACE ( 'NONE', ( #147 ), #3, .F. ) ;
#110 = EDGE_LOOP ( 'NONE', ( #220 ) ) ;
#111 = DIRECTION ( 'NONE',  ( -4.275831445896958607E-31, -1.000000000000000000, -1.224646799147353207E-16 ) ) ;
#112 = DIRECTION ( 'NONE',  ( -3.491481338843133355E-15, 1.224646799147353207E-16, -1.000000000000000000 ) ) ;
#113 = EDGE_CURVE ( 'NONE', #122, #122, #128, .T. ) ;
#114 = CARTESIAN_POINT ( 'NONE',  ( 0.0000000000000000000, 0.0000000000000000000, 0.0000000000000000000 ) ) ;
#115 =( GEOMETRIC_REPRESENTATION_CONTEXT ( 3 ) GLOBAL_UNCERTAINTY_ASSIGNED_CONTEXT ( ( #124 ) ) GLOBAL_UNIT_ASSIGNED_CONTEXT ( ( #190, #118, #214 ) ) REPRESENTATION_CONTEXT ( 'NONE', 'WORKASPACE' ) );
#116 = DIRECTION ( 'NONE',  ( 0.0000000000000000000, 1.000000000000000000, 0.0000000000000000000 ) ) ;
#117 = DIRECTION ( 'NONE',  ( 0.0000000000000000000, -1.000000000000000000, 0.0000000000000000000 ) ) ;
#118 =( NAMED_UNIT ( * ) PLANE_ANGLE_UNIT ( ) SI_UNIT ( $, .RADIAN. ) );
#119 = CC_DESIGN_DATE_AND_TIME_ASSIGNMENT ( #89, #198, ( #45 ) ) ;
#120 = DIRECTION ( 'NONE',  ( -3.491481338843133355E-15, 1.224646799147353207E-16, -1.000000000000000000 ) ) ;
#121 = CALENDAR_DATE ( 2021, 1, 11 ) ;
#122 = VERTEX_POINT ( 'NONE', #159 ) ;
#123 = CC_DESIGN_PERSON_AND_ORGANIZATION_ASSIGNMENT ( #12, #16, ( #4 ) ) ;
#124 = UNCERTAINTY_MEASURE_WITH_UNIT (LENGTH_MEASURE( 1.000000000000000082E-05 ), #190, 'distance_accuracy_value', 'NONE');
#125 = PRODUCT ( '61845', '61845', '', ( #211 ) ) ;
#126 = EDGE_LOOP ( 'NONE', ( #200 ) ) ;
#127 = FACE_OUTER_BOUND ( 'NONE', #209, .T. ) ;
#128 = CIRCLE ( 'NONE', #106, 0.4681483474218601781 ) ;
#129 = DIRECTION ( 'NONE',  ( 3.491481338843133355E-15, -1.224646799147353207E-16, 1.000000000000000000 ) ) ;
#130 = ADVANCED_FACE ( 'NONE', ( #210, #180 ), #193, .T. ) ;
#131 = CARTESIAN_POINT ( 'NONE',  ( 1.018687894544877643E-14, -3.557309630806847409E-16, 2.917638090205028512 ) ) ;
#132 = EDGE_LOOP ( 'NONE', ( #73 ) ) ;
#133 = DIRECTION ( 'NONE',  ( 0.0000000000000000000, -1.000000000000000000, 0.0000000000000000000 ) ) ;
#134 = ORIENTED_EDGE ( 'NONE', *, *, #113, .T. ) ;
#135 = DIRECTION ( 'NONE',  ( 3.491481338843133355E-15, -1.224646799147353207E-16, 1.000000000000000000 ) ) ;
#136 = CARTESIAN_POINT ( 'NONE',  ( 8.379555213223516897E-15, -0.3999999999999998557, 2.399999999999999467 ) ) ;
#137 = EDGE_CURVE ( 'NONE', #63, #63, #164, .T. ) ;
#138 = CC_DESIGN_SECURITY_CLASSIFICATION ( #207, ( #4 ) ) ;
#139 = PERSON_AND_ORGANIZATION ( #199, #10 ) ;
#140 = EDGE_CURVE ( 'NONE', #87, #87, #102, .T. ) ;
#141 = VERTEX_POINT ( 'NONE', #178 ) ;
#142 = CALENDAR_DATE ( 2021, 1, 11 ) ;
#143 = PERSON_AND_ORGANIZATION ( #199, #10 ) ;
#144 = LOCAL_TIME ( 13, 23, 47.00000000000000000, #41 ) ;
#145 = DATE_AND_TIME ( #217, #168 ) ;
#146 = EDGE_LOOP ( 'NONE', ( #90 ) ) ;
#147 = FACE_OUTER_BOUND ( 'NONE', #126, .T. ) ;
#148 = CARTESIAN_POINT ( 'NONE',  ( 8.379555213223516897E-15, -2.926183046005023679E-16, 2.399999999999999467 ) ) ;
#149 = CC_DESIGN_PERSON_AND_ORGANIZATION_ASSIGNMENT ( #80, #219, ( #207 ) ) ;
#150 = APPROVAL_PERSON_ORGANIZATION ( #30, #17, #88 ) ;
#151 = EDGE_LOOP ( 'NONE', ( #241 ) ) ;
#152 = FACE_OUTER_BOUND ( 'NONE', #78, .T. ) ;
#153 = ORIENTED_EDGE ( 'NONE', *, *, #33, .F. ) ;
#154 = CARTESIAN_POINT ( 'NONE',  ( 0.0000000000000000000, 0.0000000000000000000, 0.0000000000000000000 ) ) ;
#155 = EDGE_LOOP ( 'NONE', ( #54 ) ) ;
#156 = DIRECTION ( 'NONE',  ( -3.491481338843133355E-15, 1.224646799147353207E-16, -1.000000000000000000 ) ) ;
#157 = VERTEX_POINT ( 'NONE', #216 ) ;
#158 = VERTEX_POINT ( 'NONE', #136 ) ;
#159 = CARTESIAN_POINT ( 'NONE',  ( 1.018687894544877643E-14, -0.4681483474218605112, 2.917638090205028512 ) ) ;
#160 = AXIS2_PLACEMENT_3D ( 'NONE', #148, #99, #175 ) ;
#161 = APPROVAL_ROLE ( '' ) ;
#162 = APPROVAL_ROLE ( '' ) ;
#163 = CALENDAR_DATE ( 2021, 1, 11 ) ;
#164 = CIRCLE ( 'NONE', #189, 1.499999999999996669 ) ;
#165 = APPROVAL ( #213, 'UNSPECIFIED' ) ;
#166 = ADVANCED_BREP_SHAPE_REPRESENTATION ( '61845', ( #215, #208, #38 ), #115 ) ;
#167 = AXIS2_PLACEMENT_3D ( 'NONE', #228, #202, #34 ) ;
#168 = LOCAL_TIME ( 13, 23, 47.00000000000000000, #197 ) ;
#169 = EDGE_CURVE ( 'NONE', #158, #158, #105, .T. ) ;
#170 = CARTESIAN_POINT ( 'NONE',  ( 3.666268976580760050E-14, -1.280279662628752386E-15, 10.50061169106961501 ) ) ;
#171 = CIRCLE ( 'NONE', #236, 1.499999999999994671 ) ;
#172 = DIRECTION ( 'NONE',  ( 3.491481338843133355E-15, -1.219242935835426903E-16, 1.000000000000000000 ) ) ;
#173 = EDGE_LOOP ( 'NONE', ( #134 ) ) ;
#174 = FACE_OUTER_BOUND ( 'NONE', #56, .T. ) ;
#175 = DIRECTION ( 'NONE',  ( 0.0000000000000000000, -1.000000000000000000, 0.0000000000000000000 ) ) ;
#176 = PRODUCT_RELATED_PRODUCT_CATEGORY ( 'detail', '', ( #125 ) ) ;
#177 = COORDINATED_UNIVERSAL_TIME_OFFSET ( 1, 0, .AHEAD. ) ;
#178 = CARTESIAN_POINT ( 'NONE',  ( 2.363230401556606323E-14, -1.499999999999995559, 6.768560883500636116 ) ) ;
#179 = DATE_AND_TIME ( #142, #104 ) ;
#180 = FACE_OUTER_BOUND ( 'NONE', #155, .T. ) ;
#181 = ORIENTED_EDGE ( 'NONE', *, *, #137, .T. ) ;
#182 = DIRECTION ( 'NONE',  ( 0.0000000000000000000, 1.000000000000000000, 0.0000000000000000000 ) ) ;
#183 = AXIS2_PLACEMENT_3D ( 'NONE', #96, #205, #223 ) ;
#184 = PLANE ( 'NONE',  #66 ) ;
#185 = ORIENTED_EDGE ( 'NONE', *, *, #137, .F. ) ;
#186 = FACE_OUTER_BOUND ( 'NONE', #226, .T. ) ;
#187 = APPLICATION_CONTEXT ( 'configuration controlled 3d designs of mechanical parts and assemblies' ) ;
#188 = CARTESIAN_POINT ( 'NONE',  ( 8.379555213223516897E-15, -2.926183046005023679E-16, 2.399999999999999467 ) ) ;
#189 = AXIS2_PLACEMENT_3D ( 'NONE', #240, #112, #182 ) ;
#190 =( LENGTH_UNIT ( ) NAMED_UNIT ( * ) SI_UNIT ( .MILLI., .METRE. ) );
#191 = PERSON_AND_ORGANIZATION ( #199, #10 ) ;
#192 = FACE_BOUND ( 'NONE', #151, .T. ) ;
#193 = CONICAL_SURFACE ( 'NONE', #52, 2.499999999999995559, 0.2617993877991429130 ) ;
#194 = LOCAL_TIME ( 13, 23, 47.00000000000000000, #177 ) ;
#195 = CARTESIAN_POINT ( 'NONE',  ( 8.379555213223516897E-15, -0.3999999999999998557, 2.399999999999999467 ) ) ;
#196 = ADVANCED_FACE ( 'NONE', ( #222 ), #51, .T. ) ;
#197 = COORDINATED_UNIVERSAL_TIME_OFFSET ( 1, 0, .AHEAD. ) ;
#198 = DATE_TIME_ROLE ( 'creation_date' ) ;
#199 = PERSON ( 'UNSPECIFIED', 'UNSPECIFIED', 'UNSPECIFIED', ('UNSPECIFIED'), ('UNSPECIFIED'), ('UNSPECIFIED') ) ;
#200 = ORIENTED_EDGE ( 'NONE', *, *, #24, .F. ) ;
#201 = CIRCLE ( 'NONE', #100, 1.199999999999996403 ) ;
#202 = DIRECTION ( 'NONE',  ( -3.491481338843133355E-15, 1.224646799147353207E-16, -1.000000000000000000 ) ) ;
#203 = ADVANCED_FACE ( 'NONE', ( #53 ), #184, .F. ) ;
#204 = DIRECTION ( 'NONE',  ( -4.275831445896958607E-31, -1.000000000000000000, -1.224646799147353207E-16 ) ) ;
#205 = DIRECTION ( 'NONE',  ( 3.491481338843133355E-15, -1.224646799147353207E-16, 1.000000000000000000 ) ) ;
#206 = CLOSED_SHELL ( 'NONE', ( #196, #221, #109 ) ) ;
#207 = SECURITY_CLASSIFICATION ( '', '', #97 ) ;
#208 = MANIFOLD_SOLID_BREP ( 'Corps-Déplacer/Copier1[2]', #206 ) ;
#209 = EDGE_LOOP ( 'NONE', ( #15 ) ) ;
#210 = FACE_BOUND ( 'NONE', #173, .T. ) ;
#211 = MECHANICAL_CONTEXT ( 'NONE', #187, 'mechanical' ) ;
#212 = AXIS2_PLACEMENT_3D ( 'NONE', #2, #135, #111 ) ;
#213 = APPROVAL_STATUS ( 'not_yet_approved' ) ;
#214 =( NAMED_UNIT ( * ) SI_UNIT ( $, .STERADIAN. ) SOLID_ANGLE_UNIT ( ) );
#215 = MANIFOLD_SOLID_BREP ( 'Corps-Déplacer/Copier1[1]', #70 ) ;
#216 = CARTESIAN_POINT ( 'NONE',  ( -2.692267924229267106E-30, -0.3999999999999999667, -7.710961803740650659E-16 ) ) ;
#217 = CALENDAR_DATE ( 2021, 1, 11 ) ;
#218 = CC_DESIGN_DATE_AND_TIME_ASSIGNMENT ( #145, #48, ( #207 ) ) ;
#219 = PERSON_AND_ORGANIZATION_ROLE ( 'classification_officer' ) ;
#220 = ORIENTED_EDGE ( 'NONE', *, *, #69, .F. ) ;
#221 = ADVANCED_FACE ( 'NONE', ( #18, #174 ), #94, .T. ) ;
#222 = FACE_OUTER_BOUND ( 'NONE', #146, .T. ) ;
#223 = DIRECTION ( 'NONE',  ( -4.275831445896958607E-31, -1.000000000000000000, -1.224646799147353207E-16 ) ) ;
#224 = EDGE_LOOP ( 'NONE', ( #185 ) ) ;
#225 = CARTESIAN_POINT ( 'NONE',  ( 8.379555213223516897E-15, -4.336808689942017736E-16, 2.399999999999999467 ) ) ;
#226 = EDGE_LOOP ( 'NONE', ( #153 ) ) ;
#227 = DIRECTION ( 'NONE',  ( -4.317316899811299520E-31, -1.000000000000000000, -1.219242935835426903E-16 ) ) ;
#228 = CARTESIAN_POINT ( 'NONE',  ( 1.326762908760390423E-13, 8.998558695971051224E-33, 38.00000000000000000 ) ) ;
#229 = DIRECTION ( 'NONE',  ( 0.0000000000000000000, 1.000000000000000000, 0.0000000000000000000 ) ) ;
#230 = CARTESIAN_POINT ( 'NONE',  ( 0.0000000000000000000, 0.0000000000000000000, 0.0000000000000000000 ) ) ;
#231 = PERSON_AND_ORGANIZATION_ROLE ( 'design_owner' ) ;
#232 = DATE_AND_TIME ( #121, #144 ) ;
#233 = ADVANCED_FACE ( 'NONE', ( #152, #1 ), #79, .T. ) ;
#234 = DIRECTION ( 'NONE',  ( -3.491481338843133355E-15, 1.224646799147353207E-16, -1.000000000000000000 ) ) ;
#235 = COORDINATED_UNIVERSAL_TIME_OFFSET ( 1, 0, .AHEAD. ) ;
#236 = AXIS2_PLACEMENT_3D ( 'NONE', #21, #62, #98 ) ;
#237 = CC_DESIGN_APPROVAL ( #165, ( #45 ) ) ;
#238 = CC_DESIGN_APPROVAL ( #47, ( #4 ) ) ;
#239 = EDGE_LOOP ( 'NONE', ( #92 ) ) ;
#240 = CARTESIAN_POINT ( 'NONE',  ( 1.316288464743861212E-13, -4.616918432785521081E-15, 37.69999999999999574 ) ) ;
#241 = ORIENTED_EDGE ( 'NONE', *, *, #33, .T. ) ;
#242 = DIRECTION ( 'NONE',  ( 3.491481338843133355E-15, -1.219242935835426903E-16, 1.000000000000000000 ) ) ;
#243 = ADVANCED_FACE ( 'NONE', ( #83, #192 ), #71, .T. ) ;
ENDSEC;
END-ISO-10303-21;
