ISO-10303-21;
HEADER;
FILE_DESCRIPTION (( 'STEP AP203' ),
    '1' );
FILE_NAME ('61844.step',
    '2021-11-01T12:23:46',
    ( '' ),
    ( '' ),
    'SwSTEP 2.0',
    'SolidWorks 2019',
    '' );
FILE_SCHEMA (( 'CONFIG_CONTROL_DESIGN' ));
ENDSEC;

DATA;
#1 = ORIENTED_EDGE ( 'NONE', *, *, #13, .T. ) ;
#2 = CARTESIAN_POINT ( 'NONE',  ( 1.316288464743861212E-13, -4.616918432785521081E-15, 37.69999999999999574 ) ) ;
#3 = AXIS2_PLACEMENT_3D ( 'NONE', #25, #169, #4 ) ;
#4 = DIRECTION ( 'NONE',  ( 0.0000000000000000000, -1.000000000000000000, 0.0000000000000000000 ) ) ;
#5 = CARTESIAN_POINT ( 'NONE',  ( 7.332110811570581624E-15, 1.124819836996387185E-32, 2.100000000000000089 ) ) ;
#6 = CYLINDRICAL_SURFACE ( 'NONE', #207, 1.499999999999994671 ) ;
#7 = CARTESIAN_POINT ( 'NONE',  ( 3.626676465166673688E-14, -1.266453757470226628E-15, 10.38721423144806444 ) ) ;
#8 = DIRECTION ( 'NONE',  ( 3.491481338843133355E-15, -1.219242935835426903E-16, 1.000000000000000000 ) ) ;
#9 = DIRECTION ( 'NONE',  ( 0.0000000000000000000, -1.000000000000000000, 0.0000000000000000000 ) ) ;
#10 = AXIS2_PLACEMENT_3D ( 'NONE', #75, #98, #9 ) ;
#11 = CARTESIAN_POINT ( 'NONE',  ( 0.0000000000000000000, 0.0000000000000000000, 0.0000000000000000000 ) ) ;
#12 = COORDINATED_UNIVERSAL_TIME_OFFSET ( 1, 0, .AHEAD. ) ;
#13 = EDGE_CURVE ( 'NONE', #196, #196, #195, .T. ) ;
#14 = AXIS2_PLACEMENT_3D ( 'NONE', #42, #117, #190 ) ;
#15 = APPROVAL_DATE_TIME ( #104, #105 ) ;
#16 = CALENDAR_DATE ( 2021, 1, 11 ) ;
#17 = EDGE_LOOP ( 'NONE', ( #148 ) ) ;
#18 = LOCAL_TIME ( 13, 23, 46.00000000000000000, #160 ) ;
#19 = EDGE_CURVE ( 'NONE', #29, #29, #183, .T. ) ;
#20 = CIRCLE ( 'NONE', #14, 0.3499999999999998668 ) ;
#21 = CC_DESIGN_SECURITY_CLASSIFICATION ( #184, ( #71 ) ) ;
#22 = EDGE_LOOP ( 'NONE', ( #187 ) ) ;
#23 = APPROVAL ( #82, 'UNSPECIFIED' ) ;
#24 = DIRECTION ( 'NONE',  ( 3.491481338843133355E-15, -1.219242935835426903E-16, 1.000000000000000000 ) ) ;
#25 = CARTESIAN_POINT ( 'NONE',  ( 2.323637890142520277E-14, -8.114260991394887969E-16, 6.655163423879085549 ) ) ;
#26 = DIRECTION ( 'NONE',  ( 3.491481338843133355E-15, -1.219242935835426903E-16, 1.000000000000000000 ) ) ;
#27 = DIRECTION ( 'NONE',  ( 0.0000000000000000000, 1.000000000000000000, 0.0000000000000000000 ) ) ;
#28 =( NAMED_UNIT ( * ) PLANE_ANGLE_UNIT ( ) SI_UNIT ( $, .RADIAN. ) );
#29 = VERTEX_POINT ( 'NONE', #73 ) ;
#30 = LOCAL_TIME ( 13, 23, 46.00000000000000000, #12 ) ;
#31 = APPROVAL_ROLE ( '' ) ;
#32 = PERSON_AND_ORGANIZATION_ROLE ( 'design_supplier' ) ;
#33 = CALENDAR_DATE ( 2021, 1, 11 ) ;
#34 = AXIS2_PLACEMENT_3D ( 'NONE', #56, #43, #191 ) ;
#35 = CC_DESIGN_APPROVAL ( #105, ( #71 ) ) ;
#36 = CIRCLE ( 'NONE', #121, 0.3500000000000000333 ) ;
#37 = LOCAL_TIME ( 13, 23, 46.00000000000000000, #202 ) ;
#38 = ADVANCED_FACE ( 'NONE', ( #55, #133 ), #87, .T. ) ;
#39 = ADVANCED_BREP_SHAPE_REPRESENTATION ( '61844', ( #111, #188, #122 ), #131 ) ;
#40 = ORIENTED_EDGE ( 'NONE', *, *, #186, .T. ) ;
#41 = ORIENTED_EDGE ( 'NONE', *, *, #19, .F. ) ;
#42 = CARTESIAN_POINT ( 'NONE',  ( 7.332110811570580046E-15, -2.560410165254395904E-16, 2.100000000000000089 ) ) ;
#43 = DIRECTION ( 'NONE',  ( 3.491481338843133355E-15, -1.224646799147353207E-16, 1.000000000000000000 ) ) ;
#44 = DIRECTION ( 'NONE',  ( 0.0000000000000000000, 1.000000000000000000, 0.0000000000000000000 ) ) ;
#45 = FACE_OUTER_BOUND ( 'NONE', #68, .T. ) ;
#46 = CC_DESIGN_PERSON_AND_ORGANIZATION_ASSIGNMENT ( #110, #181, ( #71 ) ) ;
#47 = FACE_OUTER_BOUND ( 'NONE', #72, .T. ) ;
#48 = CARTESIAN_POINT ( 'NONE',  ( 0.0000000000000000000, 0.0000000000000000000, 0.0000000000000000000 ) ) ;
#49 = DESIGN_CONTEXT ( 'detailed design', #116, 'design' ) ;
#50 = PRODUCT ( '61844', '61844', '', ( #130 ) ) ;
#51 = EDGE_LOOP ( 'NONE', ( #210 ) ) ;
#52 = AXIS2_PLACEMENT_3D ( 'NONE', #96, #92, #172 ) ;
#53 = EDGE_LOOP ( 'NONE', ( #167 ) ) ;
#54 = EDGE_LOOP ( 'NONE', ( #209 ) ) ;
#55 = FACE_OUTER_BOUND ( 'NONE', #51, .T. ) ;
#56 = CARTESIAN_POINT ( 'NONE',  ( 7.332110811570581624E-15, 1.124819836996387185E-32, 2.100000000000000089 ) ) ;
#57 = FACE_OUTER_BOUND ( 'NONE', #147, .T. ) ;
#58 = FACE_OUTER_BOUND ( 'NONE', #149, .T. ) ;
#59 = VERTEX_POINT ( 'NONE', #136 ) ;
#60 =( NAMED_UNIT ( * ) SI_UNIT ( $, .STERADIAN. ) SOLID_ANGLE_UNIT ( ) );
#61 = DIRECTION ( 'NONE',  ( -4.318010611786305654E-31, -1.000000000000000000, -1.219242935835426903E-16 ) ) ;
#62 = DIRECTION ( 'NONE',  ( 0.0000000000000000000, 0.0000000000000000000, 1.000000000000000000 ) ) ;
#63 = DIRECTION ( 'NONE',  ( 1.000000000000000000, 0.0000000000000000000, 0.0000000000000000000 ) ) ;
#64 = CALENDAR_DATE ( 2021, 1, 11 ) ;
#65 = DATE_TIME_ROLE ( 'classification_date' ) ;
#66 = CONICAL_SURFACE ( 'NONE', #200, 2.499999999999995559, 0.2617993877991429130 ) ;
#67 = CARTESIAN_POINT ( 'NONE',  ( 9.139434543795838005E-15, -0.4181483474218603003, 2.617638090205029133 ) ) ;
#68 = EDGE_LOOP ( 'NONE', ( #225 ) ) ;
#69 = EDGE_LOOP ( 'NONE', ( #182 ) ) ;
#70 = FACE_OUTER_BOUND ( 'NONE', #166, .T. ) ;
#71 = PRODUCT_DEFINITION_FORMATION_WITH_SPECIFIED_SOURCE ( 'ANY', '', #50, .NOT_KNOWN. ) ;
#72 = EDGE_LOOP ( 'NONE', ( #132 ) ) ;
#73 = CARTESIAN_POINT ( 'NONE',  ( 1.326762908760390423E-13, 1.199999999999991962, 38.00000000000000000 ) ) ;
#74 = CARTESIAN_POINT ( 'NONE',  ( 0.0000000000000000000, 0.0000000000000000000, 0.0000000000000000000 ) ) ;
#75 = CARTESIAN_POINT ( 'NONE',  ( 7.332110811570580046E-15, -2.560410165254395904E-16, 2.100000000000000089 ) ) ;
#76 = PLANE ( 'NONE',  #34 ) ;
#77 = ADVANCED_FACE ( 'NONE', ( #70 ), #229, .F. ) ;
#78 = DIRECTION ( 'NONE',  ( -4.275831445896958607E-31, -1.000000000000000000, -1.224646799147353207E-16 ) ) ;
#79 = PERSON_AND_ORGANIZATION ( #106, #90 ) ;
#80 = PERSON_AND_ORGANIZATION ( #106, #90 ) ;
#81 = AXIS2_PLACEMENT_3D ( 'NONE', #2, #192, #27 ) ;
#82 = APPROVAL_STATUS ( 'not_yet_approved' ) ;
#83 = LOCAL_TIME ( 13, 23, 46.00000000000000000, #158 ) ;
#84 = APPROVAL_ROLE ( '' ) ;
#85 = DATE_AND_TIME ( #64, #30 ) ;
#86 = CC_DESIGN_PERSON_AND_ORGANIZATION_ASSIGNMENT ( #129, #140, ( #50 ) ) ;
#87 = CONICAL_SURFACE ( 'NONE', #159, 1.199999999999996403, 0.7853981633974461696 ) ;
#88 = APPROVAL_PERSON_ORGANIZATION ( #79, #105, #141 ) ;
#89 = EDGE_LOOP ( 'NONE', ( #40 ) ) ;
#90 = ORGANIZATION ( 'UNSPECIFIED', 'UNSPECIFIED', '' ) ;
#91 = CARTESIAN_POINT ( 'NONE',  ( 1.326762908760390423E-13, -4.653657836759941941E-15, 38.00000000000000000 ) ) ;
#92 = DIRECTION ( 'NONE',  ( 3.491481338843133355E-15, -1.224646799147353207E-16, 1.000000000000000000 ) ) ;
#93 = EDGE_CURVE ( 'NONE', #153, #153, #20, .T. ) ;
#94 = CARTESIAN_POINT ( 'NONE',  ( 9.139434543795838005E-15, -3.191536750056219634E-16, 2.617638090205029133 ) ) ;
#95 = APPLICATION_CONTEXT ( 'configuration controlled 3d designs of mechanical parts and assemblies' ) ;
#96 = CARTESIAN_POINT ( 'NONE',  ( -8.551680453529350800E-31, 2.999525725151307090E-32, -2.449298628175645296E-16 ) ) ;
#97 = PLANE ( 'NONE',  #180 ) ;
#98 = DIRECTION ( 'NONE',  ( 3.491481338843133355E-15, -1.219242935835426903E-16, 1.000000000000000000 ) ) ;
#99 = EDGE_CURVE ( 'NONE', #59, #59, #199, .T. ) ;
#100 = DIRECTION ( 'NONE',  ( 4.275831445896958607E-31, 1.000000000000000000, 1.224646799147353207E-16 ) ) ;
#101 = CIRCLE ( 'NONE', #10, 0.3499999999999998668 ) ;
#102 = CC_DESIGN_APPROVAL ( #114, ( #184 ) ) ;
#103 = CARTESIAN_POINT ( 'NONE',  ( 7.332110811570580046E-15, -0.3500000000000001443, 2.100000000000000089 ) ) ;
#104 = DATE_AND_TIME ( #206, #18 ) ;
#105 = APPROVAL ( #239, 'UNSPECIFIED' ) ;
#106 = PERSON ( 'UNSPECIFIED', 'UNSPECIFIED', 'UNSPECIFIED', ('UNSPECIFIED'), ('UNSPECIFIED'), ('UNSPECIFIED') ) ;
#107 = DATE_AND_TIME ( #33, #208 ) ;
#108 = PERSON_AND_ORGANIZATION ( #106, #90 ) ;
#109 = PRODUCT_DEFINITION ( 'UNKNOWN', '', #71, #49 ) ;
#110 = PERSON_AND_ORGANIZATION ( #106, #90 ) ;
#111 = MANIFOLD_SOLID_BREP ( 'Corps-Déplacer/Copier1[1]', #113 ) ;
#112 = ORIENTED_EDGE ( 'NONE', *, *, #164, .F. ) ;
#113 = CLOSED_SHELL ( 'NONE', ( #150, #38, #185, #243, #224, #212 ) ) ;
#114 = APPROVAL ( #178, 'UNSPECIFIED' ) ;
#115 = DIRECTION ( 'NONE',  ( 4.275831445896958607E-31, 1.000000000000000000, 1.224646799147352961E-16 ) ) ;
#116 = APPLICATION_CONTEXT ( 'configuration controlled 3d designs of mechanical parts and assemblies' ) ;
#117 = DIRECTION ( 'NONE',  ( 3.491481338843133355E-15, -1.219242935835426903E-16, 1.000000000000000000 ) ) ;
#118 = DIRECTION ( 'NONE',  ( -4.256963957985709765E-31, -1.000000000000000000, -1.219242935835426903E-16 ) ) ;
#119 = EDGE_LOOP ( 'NONE', ( #41 ) ) ;
#120 = FACE_OUTER_BOUND ( 'NONE', #22, .T. ) ;
#121 = AXIS2_PLACEMENT_3D ( 'NONE', #152, #24, #233 ) ;
#122 = AXIS2_PLACEMENT_3D ( 'NONE', #11, #62, #63 ) ;
#123 = DIRECTION ( 'NONE',  ( -3.491481338843133355E-15, 1.224646799147353207E-16, -1.000000000000000000 ) ) ;
#124 = FACE_OUTER_BOUND ( 'NONE', #69, .T. ) ;
#125 = AXIS2_PLACEMENT_3D ( 'NONE', #5, #231, #78 ) ;
#126 = PRODUCT_DEFINITION_SHAPE ( 'NONE', 'NONE',  #109 ) ;
#127 = APPLICATION_PROTOCOL_DEFINITION ( 'international standard', 'config_control_design', 1994, #95 ) ;
#128 = UNCERTAINTY_MEASURE_WITH_UNIT (LENGTH_MEASURE( 1.000000000000000082E-05 ), #198, 'distance_accuracy_value', 'NONE');
#129 = PERSON_AND_ORGANIZATION ( #106, #90 ) ;
#130 = MECHANICAL_CONTEXT ( 'NONE', #95, 'mechanical' ) ;
#131 =( GEOMETRIC_REPRESENTATION_CONTEXT ( 3 ) GLOBAL_UNCERTAINTY_ASSIGNED_CONTEXT ( ( #128 ) ) GLOBAL_UNIT_ASSIGNED_CONTEXT ( ( #198, #28, #60 ) ) REPRESENTATION_CONTEXT ( 'NONE', 'WORKASPACE' ) );
#132 = ORIENTED_EDGE ( 'NONE', *, *, #164, .T. ) ;
#133 = FACE_BOUND ( 'NONE', #54, .T. ) ;
#134 = DIRECTION ( 'NONE',  ( 0.0000000000000000000, -1.000000000000000000, 0.0000000000000000000 ) ) ;
#135 = DIRECTION ( 'NONE',  ( -3.491481338843133355E-15, 1.224646799147353207E-16, -1.000000000000000000 ) ) ;
#136 = CARTESIAN_POINT ( 'NONE',  ( 2.323637890142520277E-14, -1.499999999999995559, 6.655163423879085549 ) ) ;
#137 = AXIS2_PLACEMENT_3D ( 'NONE', #214, #237, #61 ) ;
#138 = FACE_OUTER_BOUND ( 'NONE', #165, .T. ) ;
#139 = CARTESIAN_POINT ( 'NONE',  ( -2.649698284649410254E-30, -0.3500000000000000333, -7.589037510157109547E-16 ) ) ;
#140 = PERSON_AND_ORGANIZATION_ROLE ( 'design_owner' ) ;
#141 = APPROVAL_ROLE ( '' ) ;
#142 = PERSON_AND_ORGANIZATION ( #106, #90 ) ;
#143 = APPROVAL_DATE_TIME ( #85, #114 ) ;
#144 = EDGE_CURVE ( 'NONE', #234, #234, #36, .T. ) ;
#145 = CIRCLE ( 'NONE', #228, 0.4181483474218599672 ) ;
#146 = CC_DESIGN_DATE_AND_TIME_ASSIGNMENT ( #205, #241, ( #109 ) ) ;
#147 = EDGE_LOOP ( 'NONE', ( #1 ) ) ;
#148 = ORIENTED_EDGE ( 'NONE', *, *, #99, .F. ) ;
#149 = EDGE_LOOP ( 'NONE', ( #163 ) ) ;
#150 = ADVANCED_FACE ( 'NONE', ( #57, #213 ), #6, .T. ) ;
#151 = FACE_OUTER_BOUND ( 'NONE', #53, .T. ) ;
#152 = CARTESIAN_POINT ( 'NONE',  ( -2.500704546119910570E-30, 8.732586706244524840E-32, -7.162302482614710229E-16 ) ) ;
#153 = VERTEX_POINT ( 'NONE', #194 ) ;
#154 = DIRECTION ( 'NONE',  ( -3.491481338843133355E-15, 1.224646799147353207E-16, -1.000000000000000000 ) ) ;
#155 = PLANE ( 'NONE',  #125 ) ;
#156 = CC_DESIGN_DATE_AND_TIME_ASSIGNMENT ( #107, #65, ( #184 ) ) ;
#157 = VERTEX_POINT ( 'NONE', #103 ) ;
#158 = COORDINATED_UNIVERSAL_TIME_OFFSET ( 1, 0, .AHEAD. ) ;
#159 = AXIS2_PLACEMENT_3D ( 'NONE', #91, #211, #44 ) ;
#160 = COORDINATED_UNIVERSAL_TIME_OFFSET ( 1, 0, .AHEAD. ) ;
#161 = SECURITY_CLASSIFICATION_LEVEL ( 'unclassified' ) ;
#162 = PERSON_AND_ORGANIZATION ( #106, #90 ) ;
#163 = ORIENTED_EDGE ( 'NONE', *, *, #93, .T. ) ;
#164 = EDGE_CURVE ( 'NONE', #157, #157, #101, .T. ) ;
#165 = EDGE_LOOP ( 'NONE', ( #112 ) ) ;
#166 = EDGE_LOOP ( 'NONE', ( #226 ) ) ;
#167 = ORIENTED_EDGE ( 'NONE', *, *, #144, .T. ) ;
#168 = DIRECTION ( 'NONE',  ( 0.0000000000000000000, 1.000000000000000000, 0.0000000000000000000 ) ) ;
#169 = DIRECTION ( 'NONE',  ( -3.491481338843133355E-15, 1.219242935835426903E-16, -1.000000000000000000 ) ) ;
#170 = DIRECTION ( 'NONE',  ( 0.0000000000000000000, -1.000000000000000000, 0.0000000000000000000 ) ) ;
#171 = AXIS2_PLACEMENT_3D ( 'NONE', #48, #177, #118 ) ;
#172 = DIRECTION ( 'NONE',  ( -4.275831445896958607E-31, -1.000000000000000000, -1.224646799147353207E-16 ) ) ;
#173 = CARTESIAN_POINT ( 'NONE',  ( 1.326762908760390423E-13, 8.998558695971051224E-33, 38.00000000000000000 ) ) ;
#174 = FACE_BOUND ( 'NONE', #89, .T. ) ;
#175 = AXIS2_PLACEMENT_3D ( 'NONE', #189, #135, #168 ) ;
#176 = APPROVAL_PERSON_ORGANIZATION ( #162, #23, #31 ) ;
#177 = DIRECTION ( 'NONE',  ( 3.491481338843133355E-15, -1.219242935835426903E-16, 1.000000000000000000 ) ) ;
#178 = APPROVAL_STATUS ( 'not_yet_approved' ) ;
#179 = DATE_AND_TIME ( #16, #83 ) ;
#180 = AXIS2_PLACEMENT_3D ( 'NONE', #173, #123, #100 ) ;
#181 = PERSON_AND_ORGANIZATION_ROLE ( 'creator' ) ;
#182 = ORIENTED_EDGE ( 'NONE', *, *, #186, .F. ) ;
#183 = CIRCLE ( 'NONE', #175, 1.199999999999996403 ) ;
#184 = SECURITY_CLASSIFICATION ( '', '', #161 ) ;
#185 = ADVANCED_FACE ( 'NONE', ( #215 ), #97, .F. ) ;
#186 = EDGE_CURVE ( 'NONE', #218, #218, #145, .T. ) ;
#187 = ORIENTED_EDGE ( 'NONE', *, *, #99, .T. ) ;
#188 = MANIFOLD_SOLID_BREP ( 'Corps-Déplacer/Copier1[2]', #236 ) ;
#189 = CARTESIAN_POINT ( 'NONE',  ( 1.326762908760390423E-13, -4.653657836759941941E-15, 38.00000000000000000 ) ) ;
#190 = DIRECTION ( 'NONE',  ( 0.0000000000000000000, -1.000000000000000000, 0.0000000000000000000 ) ) ;
#191 = DIRECTION ( 'NONE',  ( -4.275831445896958607E-31, -1.000000000000000000, -1.224646799147353207E-16 ) ) ;
#192 = DIRECTION ( 'NONE',  ( -3.491481338843133355E-15, 1.224646799147353207E-16, -1.000000000000000000 ) ) ;
#193 = CC_DESIGN_PERSON_AND_ORGANIZATION_ASSIGNMENT ( #142, #219, ( #109 ) ) ;
#194 = CARTESIAN_POINT ( 'NONE',  ( 7.332110811570580046E-15, -0.3500000000000001443, 2.100000000000000089 ) ) ;
#195 = CIRCLE ( 'NONE', #81, 1.499999999999996669 ) ;
#196 = VERTEX_POINT ( 'NONE', #235 ) ;
#197 = ADVANCED_FACE ( 'NONE', ( #151, #45 ), #217, .T. ) ;
#198 =( LENGTH_UNIT ( ) NAMED_UNIT ( * ) SI_UNIT ( .MILLI., .METRE. ) );
#199 = CIRCLE ( 'NONE', #3, 1.499999999999994671 ) ;
#200 = AXIS2_PLACEMENT_3D ( 'NONE', #7, #26, #134 ) ;
#201 = APPLICATION_PROTOCOL_DEFINITION ( 'international standard', 'config_control_design', 1994, #116 ) ;
#202 = COORDINATED_UNIVERSAL_TIME_OFFSET ( 1, 0, .AHEAD. ) ;
#203 = COORDINATED_UNIVERSAL_TIME_OFFSET ( 1, 0, .AHEAD. ) ;
#204 = CC_DESIGN_PERSON_AND_ORGANIZATION_ASSIGNMENT ( #240, #242, ( #184 ) ) ;
#205 = DATE_AND_TIME ( #221, #37 ) ;
#206 = CALENDAR_DATE ( 2021, 1, 11 ) ;
#207 = AXIS2_PLACEMENT_3D ( 'NONE', #74, #154, #115 ) ;
#208 = LOCAL_TIME ( 13, 23, 46.00000000000000000, #203 ) ;
#209 = ORIENTED_EDGE ( 'NONE', *, *, #19, .T. ) ;
#210 = ORIENTED_EDGE ( 'NONE', *, *, #13, .F. ) ;
#211 = DIRECTION ( 'NONE',  ( -3.491481338843133355E-15, 1.224646799147353207E-16, -1.000000000000000000 ) ) ;
#212 = ADVANCED_FACE ( 'NONE', ( #138 ), #155, .F. ) ;
#213 = FACE_OUTER_BOUND ( 'NONE', #17, .T. ) ;
#214 = CARTESIAN_POINT ( 'NONE',  ( 7.332110811570580046E-15, -4.336808689942017736E-16, 2.100000000000000089 ) ) ;
#215 = FACE_OUTER_BOUND ( 'NONE', #119, .T. ) ;
#216 = TOROIDAL_SURFACE ( 'NONE', #137, 2.350000000000000089, 2.000000000000000000 ) ;
#217 = CYLINDRICAL_SURFACE ( 'NONE', #171, 0.3499999999999999223 ) ;
#218 = VERTEX_POINT ( 'NONE', #67 ) ;
#219 = PERSON_AND_ORGANIZATION_ROLE ( 'creator' ) ;
#220 = CC_DESIGN_APPROVAL ( #23, ( #109 ) ) ;
#221 = CALENDAR_DATE ( 2021, 1, 11 ) ;
#222 = CC_DESIGN_PERSON_AND_ORGANIZATION_ASSIGNMENT ( #108, #32, ( #71 ) ) ;
#223 = SHAPE_DEFINITION_REPRESENTATION ( #126, #39 ) ;
#224 = ADVANCED_FACE ( 'NONE', ( #47, #124 ), #216, .F. ) ;
#225 = ORIENTED_EDGE ( 'NONE', *, *, #93, .F. ) ;
#226 = ORIENTED_EDGE ( 'NONE', *, *, #144, .F. ) ;
#227 = PRODUCT_RELATED_PRODUCT_CATEGORY ( 'detail', '', ( #50 ) ) ;
#228 = AXIS2_PLACEMENT_3D ( 'NONE', #94, #8, #170 ) ;
#229 = PLANE ( 'NONE',  #52 ) ;
#230 = APPROVAL_PERSON_ORGANIZATION ( #80, #114, #84 ) ;
#231 = DIRECTION ( 'NONE',  ( 3.491481338843133355E-15, -1.224646799147353207E-16, 1.000000000000000000 ) ) ;
#232 = ADVANCED_FACE ( 'NONE', ( #58 ), #76, .T. ) ;
#233 = DIRECTION ( 'NONE',  ( -4.256963957985710640E-31, -1.000000000000000000, -1.219242935835427642E-16 ) ) ;
#234 = VERTEX_POINT ( 'NONE', #139 ) ;
#235 = CARTESIAN_POINT ( 'NONE',  ( 1.316288464743861212E-13, 1.499999999999992228, 37.69999999999999574 ) ) ;
#236 = CLOSED_SHELL ( 'NONE', ( #232, #197, #77 ) ) ;
#237 = DIRECTION ( 'NONE',  ( 3.491481338843133355E-15, -1.219242935835426903E-16, 1.000000000000000000 ) ) ;
#238 = APPROVAL_DATE_TIME ( #179, #23 ) ;
#239 = APPROVAL_STATUS ( 'not_yet_approved' ) ;
#240 = PERSON_AND_ORGANIZATION ( #106, #90 ) ;
#241 = DATE_TIME_ROLE ( 'creation_date' ) ;
#242 = PERSON_AND_ORGANIZATION_ROLE ( 'classification_officer' ) ;
#243 = ADVANCED_FACE ( 'NONE', ( #174, #120 ), #66, .T. ) ;
ENDSEC;
END-ISO-10303-21;
