ISO-10303-21;
HEADER;
FILE_DESCRIPTION (( 'STEP AP203' ),
    '1' );
FILE_NAME ('61843.step',
    '2021-11-01T10:35:29',
    ( '' ),
    ( '' ),
    'SwSTEP 2.0',
    'SolidWorks 2019',
    '' );
FILE_SCHEMA (( 'CONFIG_CONTROL_DESIGN' ));
ENDSEC;

DATA;
#1 = PERSON_AND_ORGANIZATION_ROLE ( 'creator' ) ;
#2 = AXIS2_PLACEMENT_3D ( 'NONE', #219, #53, #108 ) ;
#3 = CALENDAR_DATE ( 2021, 1, 11 ) ;
#4 = ORIENTED_EDGE ( 'NONE', *, *, #118, .T. ) ;
#5 = PERSON_AND_ORGANIZATION ( #240, #112 ) ;
#6 = ADVANCED_FACE ( 'NONE', ( #195 ), #22, .T. ) ;
#7 = APPROVAL_STATUS ( 'not_yet_approved' ) ;
#8 = ORIENTED_EDGE ( 'NONE', *, *, #135, .T. ) ;
#9 = DIRECTION ( 'NONE',  ( 3.491481338843133355E-15, -1.224646799147353207E-16, 1.000000000000000000 ) ) ;
#10 = CARTESIAN_POINT ( 'NONE',  ( 0.0000000000000000000, 0.0000000000000000000, 0.0000000000000000000 ) ) ;
#11 = DIRECTION ( 'NONE',  ( 0.0000000000000000000, -1.000000000000000000, 0.0000000000000000000 ) ) ;
#12 = PRODUCT_DEFINITION_SHAPE ( 'NONE', 'NONE',  #156 ) ;
#13 = DIRECTION ( 'NONE',  ( 3.491481338843133355E-15, -1.219242935835426903E-16, 1.000000000000000000 ) ) ;
#14 = AXIS2_PLACEMENT_3D ( 'NONE', #180, #179, #104 ) ;
#15 = CARTESIAN_POINT ( 'NONE',  ( 7.332110811570581624E-15, 1.124819836996387185E-32, 2.100000000000000089 ) ) ;
#16 = DIRECTION ( 'NONE',  ( 0.0000000000000000000, -1.000000000000000000, 0.0000000000000000000 ) ) ;
#17 = DIRECTION ( 'NONE',  ( -4.256963957985710640E-31, -1.000000000000000000, -1.219242935835427642E-16 ) ) ;
#18 = CARTESIAN_POINT ( 'NONE',  ( 1.326762908760390423E-13, 1.199999999999991518, 38.00000000000000000 ) ) ;
#19 = VERTEX_POINT ( 'NONE', #70 ) ;
#20 = COORDINATED_UNIVERSAL_TIME_OFFSET ( 1, 0, .AHEAD. ) ;
#21 = PERSON_AND_ORGANIZATION ( #240, #112 ) ;
#22 = PLANE ( 'NONE',  #79 ) ;
#23 = CARTESIAN_POINT ( 'NONE',  ( 7.332110811570581624E-15, 1.124819836996387185E-32, 2.100000000000000089 ) ) ;
#24 = APPROVAL ( #7, 'UNSPECIFIED' ) ;
#25 = SECURITY_CLASSIFICATION ( '', '', #190 ) ;
#26 = DIRECTION ( 'NONE',  ( 0.0000000000000000000, 1.000000000000000000, 0.0000000000000000000 ) ) ;
#27 = ADVANCED_FACE ( 'NONE', ( #175 ), #28, .F. ) ;
#28 = PLANE ( 'NONE',  #58 ) ;
#29 = DIRECTION ( 'NONE',  ( 3.491481338843133355E-15, -1.224646799147353207E-16, 1.000000000000000000 ) ) ;
#30 = AXIS2_PLACEMENT_3D ( 'NONE', #202, #52, #109 ) ;
#31 = CARTESIAN_POINT ( 'NONE',  ( 1.326762908760390423E-13, 8.998558695971047118E-33, 38.00000000000000000 ) ) ;
#32 = CARTESIAN_POINT ( 'NONE',  ( 1.316288464743861212E-13, 1.499999999999992228, 37.69999999999999574 ) ) ;
#33 =( NAMED_UNIT ( * ) SI_UNIT ( $, .STERADIAN. ) SOLID_ANGLE_UNIT ( ) );
#34 = CARTESIAN_POINT ( 'NONE',  ( 0.0000000000000000000, 0.0000000000000000000, 0.0000000000000000000 ) ) ;
#35 = DATE_TIME_ROLE ( 'creation_date' ) ;
#36 = ORIENTED_EDGE ( 'NONE', *, *, #65, .F. ) ;
#37 = COORDINATED_UNIVERSAL_TIME_OFFSET ( 1, 0, .AHEAD. ) ;
#38 = CC_DESIGN_DATE_AND_TIME_ASSIGNMENT ( #119, #35, ( #156 ) ) ;
#39 = ORIENTED_EDGE ( 'NONE', *, *, #243, .T. ) ;
#40 = APPROVAL_STATUS ( 'not_yet_approved' ) ;
#41 = AXIS2_PLACEMENT_3D ( 'NONE', #68, #13, #11 ) ;
#42 = PRODUCT ( '61843', '61843', '', ( #147 ) ) ;
#43 = DIRECTION ( 'NONE',  ( -3.491481338843133355E-15, 1.219242935835426903E-16, -1.000000000000000000 ) ) ;
#44 = DIRECTION ( 'NONE',  ( 0.0000000000000000000, -1.000000000000000000, 0.0000000000000000000 ) ) ;
#45 = AXIS2_PLACEMENT_3D ( 'NONE', #31, #73, #242 ) ;
#46 = EDGE_CURVE ( 'NONE', #90, #90, #107, .T. ) ;
#47 = DIRECTION ( 'NONE',  ( 3.491481338843133355E-15, -1.219242935835426903E-16, 1.000000000000000000 ) ) ;
#48 = DIRECTION ( 'NONE',  ( -3.491481338843133355E-15, 1.224646799147353207E-16, -1.000000000000000000 ) ) ;
#49 = PERSON_AND_ORGANIZATION_ROLE ( 'design_owner' ) ;
#50 = CIRCLE ( 'NONE', #148, 0.3500000000000000333 ) ;
#51 = VERTEX_POINT ( 'NONE', #94 ) ;
#52 = DIRECTION ( 'NONE',  ( 3.491481338843133355E-15, -1.219242935835426903E-16, 1.000000000000000000 ) ) ;
#53 = DIRECTION ( 'NONE',  ( 3.491481338843133355E-15, -1.219242935835426903E-16, 1.000000000000000000 ) ) ;
#54 = AXIS2_PLACEMENT_3D ( 'NONE', #23, #198, #200 ) ;
#55 = LOCAL_TIME ( 11, 35, 29.00000000000000000, #158 ) ;
#56 = PERSON_AND_ORGANIZATION_ROLE ( 'creator' ) ;
#57 = APPROVAL_ROLE ( '' ) ;
#58 = AXIS2_PLACEMENT_3D ( 'NONE', #140, #9, #142 ) ;
#59 = DATE_AND_TIME ( #228, #55 ) ;
#60 = MANIFOLD_SOLID_BREP ( 'Corps-Déplacer/Copier1[1]', #209 ) ;
#61 = EDGE_LOOP ( 'NONE', ( #4 ) ) ;
#62 = MANIFOLD_SOLID_BREP ( 'Corps-Déplacer/Copier1[2]', #75 ) ;
#63 = DIRECTION ( 'NONE',  ( -3.491481338843133355E-15, 1.224646799147353207E-16, -1.000000000000000000 ) ) ;
#64 = DIRECTION ( 'NONE',  ( -4.275831445896958607E-31, -1.000000000000000000, -1.224646799147353207E-16 ) ) ;
#65 = EDGE_CURVE ( 'NONE', #51, #51, #67, .T. ) ;
#66 = ORIENTED_EDGE ( 'NONE', *, *, #178, .T. ) ;
#67 = CIRCLE ( 'NONE', #227, 1.499999999999994671 ) ;
#68 = CARTESIAN_POINT ( 'NONE',  ( 7.332110811570580046E-15, -2.560410165254395904E-16, 2.100000000000000089 ) ) ;
#69 = APPLICATION_PROTOCOL_DEFINITION ( 'international standard', 'config_control_design', 1994, #141 ) ;
#70 = CARTESIAN_POINT ( 'NONE',  ( 7.332110811570580046E-15, -0.3500000000000001443, 2.100000000000000089 ) ) ;
#71 = CC_DESIGN_PERSON_AND_ORGANIZATION_ASSIGNMENT ( #78, #191, ( #25 ) ) ;
#72 = FACE_OUTER_BOUND ( 'NONE', #230, .T. ) ;
#73 = DIRECTION ( 'NONE',  ( -3.491481338843133355E-15, 1.224646799147353207E-16, -1.000000000000000000 ) ) ;
#74 = ADVANCED_FACE ( 'NONE', ( #121, #212 ), #214, .T. ) ;
#75 = CLOSED_SHELL ( 'NONE', ( #6, #197, #27 ) ) ;
#76 = CALENDAR_DATE ( 2021, 1, 11 ) ;
#77 = CC_DESIGN_DATE_AND_TIME_ASSIGNMENT ( #81, #174, ( #25 ) ) ;
#78 = PERSON_AND_ORGANIZATION ( #240, #112 ) ;
#79 = AXIS2_PLACEMENT_3D ( 'NONE', #15, #29, #64 ) ;
#80 = EDGE_LOOP ( 'NONE', ( #36 ) ) ;
#81 = DATE_AND_TIME ( #76, #223 ) ;
#82 = ORIENTED_EDGE ( 'NONE', *, *, #92, .F. ) ;
#83 = ORIENTED_EDGE ( 'NONE', *, *, #118, .F. ) ;
#84 = DIRECTION ( 'NONE',  ( 4.275831445896958607E-31, 1.000000000000000000, 1.224646799147352961E-16 ) ) ;
#85 = FACE_BOUND ( 'NONE', #134, .T. ) ;
#86 = CIRCLE ( 'NONE', #14, 1.199999999999995959 ) ;
#87 = APPROVAL_PERSON_ORGANIZATION ( #120, #225, #194 ) ;
#88 = FACE_OUTER_BOUND ( 'NONE', #234, .T. ) ;
#89 = DIRECTION ( 'NONE',  ( 1.000000000000000000, 0.0000000000000000000, 0.0000000000000000000 ) ) ;
#90 = VERTEX_POINT ( 'NONE', #201 ) ;
#91 = CARTESIAN_POINT ( 'NONE',  ( -2.649698284649410254E-30, -0.3500000000000000333, -7.589037510157109547E-16 ) ) ;
#92 = EDGE_CURVE ( 'NONE', #216, #216, #186, .T. ) ;
#93 = CARTESIAN_POINT ( 'NONE',  ( 3.626676465166673688E-14, -1.266453757470226628E-15, 10.38721423144806444 ) ) ;
#94 = CARTESIAN_POINT ( 'NONE',  ( 2.323637890142520277E-14, -1.499999999999995559, 6.655163423879085549 ) ) ;
#95 = APPROVAL_DATE_TIME ( #226, #144 ) ;
#96 = DATE_AND_TIME ( #3, #166 ) ;
#97 = PERSON_AND_ORGANIZATION ( #240, #112 ) ;
#98 = APPROVAL_DATE_TIME ( #96, #225 ) ;
#99 = AXIS2_PLACEMENT_3D ( 'NONE', #10, #63, #84 ) ;
#100 = CC_DESIGN_APPROVAL ( #24, ( #25 ) ) ;
#101 = ADVANCED_FACE ( 'NONE', ( #196 ), #123, .F. ) ;
#102 = ORIENTED_EDGE ( 'NONE', *, *, #46, .T. ) ;
#103 = EDGE_LOOP ( 'NONE', ( #126 ) ) ;
#104 = DIRECTION ( 'NONE',  ( 0.0000000000000000000, 1.000000000000000000, 0.0000000000000000000 ) ) ;
#105 = DIRECTION ( 'NONE',  ( 3.491481338843133355E-15, -1.219242935835426903E-16, 1.000000000000000000 ) ) ;
#106 = CARTESIAN_POINT ( 'NONE',  ( 1.316288464743861212E-13, -4.616918432785521081E-15, 37.69999999999999574 ) ) ;
#107 = CIRCLE ( 'NONE', #222, 0.3499999999999998668 ) ;
#108 = DIRECTION ( 'NONE',  ( -4.318010611786305654E-31, -1.000000000000000000, -1.219242935835426903E-16 ) ) ;
#109 = DIRECTION ( 'NONE',  ( -4.256963957985709765E-31, -1.000000000000000000, -1.219242935835426903E-16 ) ) ;
#110 = CC_DESIGN_PERSON_AND_ORGANIZATION_ASSIGNMENT ( #153, #56, ( #156 ) ) ;
#111 = FACE_OUTER_BOUND ( 'NONE', #199, .T. ) ;
#112 = ORGANIZATION ( 'UNSPECIFIED', 'UNSPECIFIED', '' ) ;
#113 = DIRECTION ( 'NONE',  ( 0.0000000000000000000, 0.0000000000000000000, 1.000000000000000000 ) ) ;
#114 = EDGE_LOOP ( 'NONE', ( #162 ) ) ;
#115 = AXIS2_PLACEMENT_3D ( 'NONE', #93, #128, #16 ) ;
#116 = PERSON_AND_ORGANIZATION_ROLE ( 'design_supplier' ) ;
#117 = CC_DESIGN_PERSON_AND_ORGANIZATION_ASSIGNMENT ( #5, #1, ( #237 ) ) ;
#118 = EDGE_CURVE ( 'NONE', #168, #168, #192, .T. ) ;
#119 = DATE_AND_TIME ( #171, #157 ) ;
#120 = PERSON_AND_ORGANIZATION ( #240, #112 ) ;
#121 = FACE_OUTER_BOUND ( 'NONE', #61, .T. ) ;
#122 = CARTESIAN_POINT ( 'NONE',  ( 9.139434543795838005E-15, -3.191536750056219634E-16, 2.617638090205029133 ) ) ;
#123 = PLANE ( 'NONE',  #54 ) ;
#124 = AXIS2_PLACEMENT_3D ( 'NONE', #106, #177, #26 ) ;
#125 = APPROVAL_PERSON_ORGANIZATION ( #21, #24, #155 ) ;
#126 = ORIENTED_EDGE ( 'NONE', *, *, #92, .T. ) ;
#127 = DIRECTION ( 'NONE',  ( 0.0000000000000000000, 1.000000000000000000, 0.0000000000000000000 ) ) ;
#128 = DIRECTION ( 'NONE',  ( 3.491481338843133355E-15, -1.219242935835426903E-16, 1.000000000000000000 ) ) ;
#129 =( LENGTH_UNIT ( ) NAMED_UNIT ( * ) SI_UNIT ( .MILLI., .METRE. ) );
#130 = CARTESIAN_POINT ( 'NONE',  ( 9.139434543795838005E-15, -0.4181483474218603003, 2.617638090205029133 ) ) ;
#131 = CC_DESIGN_SECURITY_CLASSIFICATION ( #25, ( #237 ) ) ;
#132 = PLANE ( 'NONE',  #45 ) ;
#133 = CALENDAR_DATE ( 2021, 1, 11 ) ;
#134 = EDGE_LOOP ( 'NONE', ( #8 ) ) ;
#135 = EDGE_CURVE ( 'NONE', #185, #185, #86, .T. ) ;
#136 = COORDINATED_UNIVERSAL_TIME_OFFSET ( 1, 0, .AHEAD. ) ;
#137 = CYLINDRICAL_SURFACE ( 'NONE', #30, 0.3499999999999999223 ) ;
#138 = EDGE_LOOP ( 'NONE', ( #39 ) ) ;
#139 = PRODUCT_RELATED_PRODUCT_CATEGORY ( 'detail', '', ( #42 ) ) ;
#140 = CARTESIAN_POINT ( 'NONE',  ( -8.551680453529350800E-31, 2.999525725151307090E-32, -2.449298628175645296E-16 ) ) ;
#141 = APPLICATION_CONTEXT ( 'configuration controlled 3d designs of mechanical parts and assemblies' ) ;
#142 = DIRECTION ( 'NONE',  ( -4.275831445896958607E-31, -1.000000000000000000, -1.224646799147353207E-16 ) ) ;
#143 = CC_DESIGN_APPROVAL ( #144, ( #156 ) ) ;
#144 = APPROVAL ( #208, 'UNSPECIFIED' ) ;
#145 = CARTESIAN_POINT ( 'NONE',  ( 1.326762908760390423E-13, -4.653657836759941941E-15, 38.00000000000000000 ) ) ;
#146 = PERSON_AND_ORGANIZATION ( #240, #112 ) ;
#147 = MECHANICAL_CONTEXT ( 'NONE', #233, 'mechanical' ) ;
#148 = AXIS2_PLACEMENT_3D ( 'NONE', #150, #149, #17 ) ;
#149 = DIRECTION ( 'NONE',  ( 3.491481338843133355E-15, -1.219242935835426903E-16, 1.000000000000000000 ) ) ;
#150 = CARTESIAN_POINT ( 'NONE',  ( -2.500704546119910570E-30, 8.732586706244524840E-32, -7.162302482614710229E-16 ) ) ;
#151 = FACE_BOUND ( 'NONE', #103, .T. ) ;
#152 = CIRCLE ( 'NONE', #41, 0.3499999999999998668 ) ;
#153 = PERSON_AND_ORGANIZATION ( #240, #112 ) ;
#154 = UNCERTAINTY_MEASURE_WITH_UNIT (LENGTH_MEASURE( 1.000000000000000082E-05 ), #129, 'distance_accuracy_value', 'NONE');
#155 = APPROVAL_ROLE ( '' ) ;
#156 = PRODUCT_DEFINITION ( 'UNKNOWN', '', #237, #206 ) ;
#157 = LOCAL_TIME ( 11, 35, 29.00000000000000000, #37 ) ;
#158 = COORDINATED_UNIVERSAL_TIME_OFFSET ( 1, 0, .AHEAD. ) ;
#159 = EDGE_LOOP ( 'NONE', ( #204 ) ) ;
#160 = CARTESIAN_POINT ( 'NONE',  ( 2.323637890142520277E-14, -8.114260991394887969E-16, 6.655163423879085549 ) ) ;
#161 = CC_DESIGN_PERSON_AND_ORGANIZATION_ASSIGNMENT ( #97, #116, ( #237 ) ) ;
#162 = ORIENTED_EDGE ( 'NONE', *, *, #178, .F. ) ;
#163 = EDGE_LOOP ( 'NONE', ( #66 ) ) ;
#164 = CC_DESIGN_PERSON_AND_ORGANIZATION_ASSIGNMENT ( #169, #49, ( #42 ) ) ;
#165 = EDGE_LOOP ( 'NONE', ( #235 ) ) ;
#166 = LOCAL_TIME ( 11, 35, 29.00000000000000000, #136 ) ;
#167 = FACE_OUTER_BOUND ( 'NONE', #138, .T. ) ;
#168 = VERTEX_POINT ( 'NONE', #32 ) ;
#169 = PERSON_AND_ORGANIZATION ( #240, #112 ) ;
#170 = APPROVAL_PERSON_ORGANIZATION ( #146, #144, #57 ) ;
#171 = CALENDAR_DATE ( 2021, 1, 11 ) ;
#172 = EDGE_LOOP ( 'NONE', ( #181 ) ) ;
#173 = COORDINATED_UNIVERSAL_TIME_OFFSET ( 1, 0, .AHEAD. ) ;
#174 = DATE_TIME_ROLE ( 'classification_date' ) ;
#175 = FACE_OUTER_BOUND ( 'NONE', #165, .T. ) ;
#176 = TOROIDAL_SURFACE ( 'NONE', #2, 2.350000000000000089, 2.000000000000000000 ) ;
#177 = DIRECTION ( 'NONE',  ( -3.491481338843133355E-15, 1.224646799147353207E-16, -1.000000000000000000 ) ) ;
#178 = EDGE_CURVE ( 'NONE', #19, #19, #152, .T. ) ;
#179 = DIRECTION ( 'NONE',  ( -3.491481338843133355E-15, 1.224646799147353207E-16, -1.000000000000000000 ) ) ;
#180 = CARTESIAN_POINT ( 'NONE',  ( 1.326762908760390423E-13, -4.653657836759941941E-15, 38.00000000000000000 ) ) ;
#181 = ORIENTED_EDGE ( 'NONE', *, *, #135, .F. ) ;
#182 = CONICAL_SURFACE ( 'NONE', #231, 1.199999999999995959, 0.7853981633974468357 ) ;
#183 = ADVANCED_BREP_SHAPE_REPRESENTATION ( '61843', ( #60, #62, #213 ), #207 ) ;
#184 = FACE_OUTER_BOUND ( 'NONE', #210, .T. ) ;
#185 = VERTEX_POINT ( 'NONE', #18 ) ;
#186 = CIRCLE ( 'NONE', #236, 0.4181483474218599672 ) ;
#187 =( NAMED_UNIT ( * ) PLANE_ANGLE_UNIT ( ) SI_UNIT ( $, .RADIAN. ) );
#188 = ADVANCED_FACE ( 'NONE', ( #88, #85 ), #182, .T. ) ;
#189 = CONICAL_SURFACE ( 'NONE', #115, 2.499999999999995559, 0.2617993877991429130 ) ;
#190 = SECURITY_CLASSIFICATION_LEVEL ( 'unclassified' ) ;
#191 = PERSON_AND_ORGANIZATION_ROLE ( 'classification_officer' ) ;
#192 = CIRCLE ( 'NONE', #124, 1.499999999999996669 ) ;
#193 = LOCAL_TIME ( 11, 35, 29.00000000000000000, #173 ) ;
#194 = APPROVAL_ROLE ( '' ) ;
#195 = FACE_OUTER_BOUND ( 'NONE', #163, .T. ) ;
#196 = FACE_OUTER_BOUND ( 'NONE', #159, .T. ) ;
#197 = ADVANCED_FACE ( 'NONE', ( #167, #239 ), #137, .T. ) ;
#198 = DIRECTION ( 'NONE',  ( 3.491481338843133355E-15, -1.224646799147353207E-16, 1.000000000000000000 ) ) ;
#199 = EDGE_LOOP ( 'NONE', ( #82 ) ) ;
#200 = DIRECTION ( 'NONE',  ( -4.275831445896958607E-31, -1.000000000000000000, -1.224646799147353207E-16 ) ) ;
#201 = CARTESIAN_POINT ( 'NONE',  ( 7.332110811570580046E-15, -0.3500000000000001443, 2.100000000000000089 ) ) ;
#202 = CARTESIAN_POINT ( 'NONE',  ( 0.0000000000000000000, 0.0000000000000000000, 0.0000000000000000000 ) ) ;
#203 = ADVANCED_FACE ( 'NONE', ( #241 ), #132, .F. ) ;
#204 = ORIENTED_EDGE ( 'NONE', *, *, #46, .F. ) ;
#205 = SHAPE_DEFINITION_REPRESENTATION ( #12, #183 ) ;
#206 = DESIGN_CONTEXT ( 'detailed design', #141, 'design' ) ;
#207 =( GEOMETRIC_REPRESENTATION_CONTEXT ( 3 ) GLOBAL_UNCERTAINTY_ASSIGNED_CONTEXT ( ( #154 ) ) GLOBAL_UNIT_ASSIGNED_CONTEXT ( ( #129, #187, #33 ) ) REPRESENTATION_CONTEXT ( 'NONE', 'WORKASPACE' ) );
#208 = APPROVAL_STATUS ( 'not_yet_approved' ) ;
#209 = CLOSED_SHELL ( 'NONE', ( #74, #188, #203, #229, #220, #101 ) ) ;
#210 = EDGE_LOOP ( 'NONE', ( #102 ) ) ;
#211 = ORIENTED_EDGE ( 'NONE', *, *, #65, .T. ) ;
#212 = FACE_OUTER_BOUND ( 'NONE', #80, .T. ) ;
#213 = AXIS2_PLACEMENT_3D ( 'NONE', #34, #113, #89 ) ;
#214 = CYLINDRICAL_SURFACE ( 'NONE', #99, 1.499999999999994671 ) ;
#215 = DIRECTION ( 'NONE',  ( 0.0000000000000000000, -1.000000000000000000, 0.0000000000000000000 ) ) ;
#216 = VERTEX_POINT ( 'NONE', #130 ) ;
#217 = VERTEX_POINT ( 'NONE', #91 ) ;
#218 = CC_DESIGN_APPROVAL ( #225, ( #237 ) ) ;
#219 = CARTESIAN_POINT ( 'NONE',  ( 7.332110811570580046E-15, -4.336808689942017736E-16, 2.100000000000000089 ) ) ;
#220 = ADVANCED_FACE ( 'NONE', ( #184, #111 ), #176, .F. ) ;
#221 = APPLICATION_PROTOCOL_DEFINITION ( 'international standard', 'config_control_design', 1994, #233 ) ;
#222 = AXIS2_PLACEMENT_3D ( 'NONE', #238, #47, #215 ) ;
#223 = LOCAL_TIME ( 11, 35, 29.00000000000000000, #20 ) ;
#224 = APPROVAL_DATE_TIME ( #59, #24 ) ;
#225 = APPROVAL ( #40, 'UNSPECIFIED' ) ;
#226 = DATE_AND_TIME ( #133, #193 ) ;
#227 = AXIS2_PLACEMENT_3D ( 'NONE', #160, #43, #232 ) ;
#228 = CALENDAR_DATE ( 2021, 1, 11 ) ;
#229 = ADVANCED_FACE ( 'NONE', ( #151, #72 ), #189, .T. ) ;
#230 = EDGE_LOOP ( 'NONE', ( #211 ) ) ;
#231 = AXIS2_PLACEMENT_3D ( 'NONE', #145, #48, #127 ) ;
#232 = DIRECTION ( 'NONE',  ( 0.0000000000000000000, -1.000000000000000000, 0.0000000000000000000 ) ) ;
#233 = APPLICATION_CONTEXT ( 'configuration controlled 3d designs of mechanical parts and assemblies' ) ;
#234 = EDGE_LOOP ( 'NONE', ( #83 ) ) ;
#235 = ORIENTED_EDGE ( 'NONE', *, *, #243, .F. ) ;
#236 = AXIS2_PLACEMENT_3D ( 'NONE', #122, #105, #44 ) ;
#237 = PRODUCT_DEFINITION_FORMATION_WITH_SPECIFIED_SOURCE ( 'ANY', '', #42, .NOT_KNOWN. ) ;
#238 = CARTESIAN_POINT ( 'NONE',  ( 7.332110811570580046E-15, -2.560410165254395904E-16, 2.100000000000000089 ) ) ;
#239 = FACE_OUTER_BOUND ( 'NONE', #114, .T. ) ;
#240 = PERSON ( 'UNSPECIFIED', 'UNSPECIFIED', 'UNSPECIFIED', ('UNSPECIFIED'), ('UNSPECIFIED'), ('UNSPECIFIED') ) ;
#241 = FACE_OUTER_BOUND ( 'NONE', #172, .T. ) ;
#242 = DIRECTION ( 'NONE',  ( 4.275831445896958607E-31, 1.000000000000000000, 1.224646799147353207E-16 ) ) ;
#243 = EDGE_CURVE ( 'NONE', #217, #217, #50, .T. ) ;
ENDSEC;
END-ISO-10303-21;
