ISO-10303-21;
HEADER;
FILE_DESCRIPTION (( 'STEP AP203' ),
    '1' );
FILE_NAME ('61842.step',
    '2021-11-01T10:35:28',
    ( '' ),
    ( '' ),
    'SwSTEP 2.0',
    'SolidWorks 2019',
    '' );
FILE_SCHEMA (( 'CONFIG_CONTROL_DESIGN' ));
ENDSEC;

DATA;
#1 = FACE_OUTER_BOUND ( 'NONE', #32, .T. ) ;
#2 = CONICAL_SURFACE ( 'NONE', #71, 2.499999999999995559, 0.2617993877991429685 ) ;
#3 = DIRECTION ( 'NONE',  ( 3.491481338843133355E-15, -1.224646799147353207E-16, 1.000000000000000000 ) ) ;
#4 = CARTESIAN_POINT ( 'NONE',  ( 1.326762908760390423E-13, -4.653657836759941941E-15, 38.00000000000000000 ) ) ;
#5 = DIRECTION ( 'NONE',  ( 0.0000000000000000000, -1.000000000000000000, 0.0000000000000000000 ) ) ;
#6 = CARTESIAN_POINT ( 'NONE',  ( 2.284045378728433285E-14, -1.499999999999995559, 6.541765964257533206 ) ) ;
#7 = CALENDAR_DATE ( 2021, 1, 11 ) ;
#8 = LOCAL_TIME ( 11, 35, 28.00000000000000000, #83 ) ;
#9 = VERTEX_POINT ( 'NONE', #69 ) ;
#10 = ADVANCED_FACE ( 'NONE', ( #108, #15 ), #226, .T. ) ;
#11 = CARTESIAN_POINT ( 'NONE',  ( 8.091990142142893265E-15, -0.3681483474218600338, 2.317638090205027979 ) ) ;
#12 = APPROVAL_DATE_TIME ( #240, #202 ) ;
#13 = ADVANCED_FACE ( 'NONE', ( #173, #214 ), #229, .T. ) ;
#14 = AXIS2_PLACEMENT_3D ( 'NONE', #172, #93, #137 ) ;
#15 = FACE_OUTER_BOUND ( 'NONE', #131, .T. ) ;
#16 = CALENDAR_DATE ( 2021, 1, 11 ) ;
#17 = ORIENTED_EDGE ( 'NONE', *, *, #81, .F. ) ;
#18 = ORGANIZATION ( 'UNSPECIFIED', 'UNSPECIFIED', '' ) ;
#19 = EDGE_LOOP ( 'NONE', ( #110 ) ) ;
#20 = DIRECTION ( 'NONE',  ( 0.0000000000000000000, -1.000000000000000000, 0.0000000000000000000 ) ) ;
#21 = PLANE ( 'NONE',  #62 ) ;
#22 = DIRECTION ( 'NONE',  ( -3.491481338843133355E-15, 1.219242935835426903E-16, -1.000000000000000000 ) ) ;
#23 = CARTESIAN_POINT ( 'NONE',  ( -8.551680453529350800E-31, 2.999525725151307090E-32, -2.449298628175645296E-16 ) ) ;
#24 = DIRECTION ( 'NONE',  ( 3.491481338843133355E-15, -1.219242935835426903E-16, 1.000000000000000000 ) ) ;
#25 = CC_DESIGN_APPROVAL ( #202, ( #181 ) ) ;
#26 = APPROVAL_STATUS ( 'not_yet_approved' ) ;
#27 = CC_DESIGN_DATE_AND_TIME_ASSIGNMENT ( #233, #120, ( #181 ) ) ;
#28 = PERSON_AND_ORGANIZATION ( #243, #18 ) ;
#29 = TOROIDAL_SURFACE ( 'NONE', #61, 2.299999999999999822, 2.000000000000000000 ) ;
#30 = COORDINATED_UNIVERSAL_TIME_OFFSET ( 1, 0, .AHEAD. ) ;
#31 = EDGE_LOOP ( 'NONE', ( #206 ) ) ;
#32 = EDGE_LOOP ( 'NONE', ( #53 ) ) ;
#33 = ORIENTED_EDGE ( 'NONE', *, *, #54, .T. ) ;
#34 = ORIENTED_EDGE ( 'NONE', *, *, #72, .F. ) ;
#35 = CC_DESIGN_SECURITY_CLASSIFICATION ( #181, ( #161 ) ) ;
#36 = PRODUCT ( '61842', '61842', '', ( #104 ) ) ;
#37 = EDGE_CURVE ( 'NONE', #221, #221, #230, .T. ) ;
#38 = DIRECTION ( 'NONE',  ( 0.0000000000000000000, 1.000000000000000000, 0.0000000000000000000 ) ) ;
#39 = DIRECTION ( 'NONE',  ( -3.491481338843133355E-15, 1.224646799147353207E-16, -1.000000000000000000 ) ) ;
#40 = FACE_BOUND ( 'NONE', #167, .T. ) ;
#41 = CARTESIAN_POINT ( 'NONE',  ( 0.0000000000000000000, 0.0000000000000000000, 0.0000000000000000000 ) ) ;
#42 = PERSON_AND_ORGANIZATION_ROLE ( 'creator' ) ;
#43 = FACE_OUTER_BOUND ( 'NONE', #205, .T. ) ;
#44 = PERSON_AND_ORGANIZATION ( #243, #18 ) ;
#45 = APPLICATION_PROTOCOL_DEFINITION ( 'international standard', 'config_control_design', 1994, #143 ) ;
#46 = PERSON_AND_ORGANIZATION ( #243, #18 ) ;
#47 = VERTEX_POINT ( 'NONE', #200 ) ;
#48 = VERTEX_POINT ( 'NONE', #216 ) ;
#49 = AXIS2_PLACEMENT_3D ( 'NONE', #56, #119, #97 ) ;
#50 = APPROVAL_PERSON_ORGANIZATION ( #141, #202, #102 ) ;
#51 = APPLICATION_PROTOCOL_DEFINITION ( 'international standard', 'config_control_design', 1994, #217 ) ;
#52 = EDGE_LOOP ( 'NONE', ( #34 ) ) ;
#53 = ORIENTED_EDGE ( 'NONE', *, *, #37, .T. ) ;
#54 = EDGE_CURVE ( 'NONE', #9, #9, #197, .T. ) ;
#55 = ORIENTED_EDGE ( 'NONE', *, *, #72, .T. ) ;
#56 = CARTESIAN_POINT ( 'NONE',  ( 8.091990142142893265E-15, -2.825763869305590380E-16, 2.317638090205027979 ) ) ;
#57 = CLOSED_SHELL ( 'NONE', ( #228, #10, #100 ) ) ;
#58 = DIRECTION ( 'NONE',  ( 3.491481338843133355E-15, -1.219242935835426903E-16, 1.000000000000000000 ) ) ;
#59 = CARTESIAN_POINT ( 'NONE',  ( 6.284666409917636095E-15, -4.336808689942017736E-16, 1.799999999999998934 ) ) ;
#60 = DIRECTION ( 'NONE',  ( -3.491481338843133355E-15, 1.224646799147353207E-16, -1.000000000000000000 ) ) ;
#61 = AXIS2_PLACEMENT_3D ( 'NONE', #59, #24, #114 ) ;
#62 = AXIS2_PLACEMENT_3D ( 'NONE', #96, #3, #136 ) ;
#63 = DIRECTION ( 'NONE',  ( -4.275831445896958607E-31, -1.000000000000000000, -1.224646799147353207E-16 ) ) ;
#64 = PERSON_AND_ORGANIZATION_ROLE ( 'creator' ) ;
#65 = COORDINATED_UNIVERSAL_TIME_OFFSET ( 1, 0, .AHEAD. ) ;
#66 = DATE_TIME_ROLE ( 'creation_date' ) ;
#67 = CIRCLE ( 'NONE', #180, 1.499999999999996669 ) ;
#68 =( NAMED_UNIT ( * ) PLANE_ANGLE_UNIT ( ) SI_UNIT ( $, .RADIAN. ) );
#69 = CARTESIAN_POINT ( 'NONE',  ( 1.326762908760390423E-13, 1.199999999999991518, 38.00000000000000000 ) ) ;
#70 = PRODUCT_DEFINITION ( 'UNKNOWN', '', #161, #115 ) ;
#71 = AXIS2_PLACEMENT_3D ( 'NONE', #209, #58, #5 ) ;
#72 = EDGE_CURVE ( 'NONE', #128, #128, #218, .T. ) ;
#73 = PLANE ( 'NONE',  #213 ) ;
#74 = CARTESIAN_POINT ( 'NONE',  ( 0.0000000000000000000, 0.0000000000000000000, 0.0000000000000000000 ) ) ;
#75 = AXIS2_PLACEMENT_3D ( 'NONE', #23, #171, #63 ) ;
#76 = FACE_OUTER_BOUND ( 'NONE', #203, .T. ) ;
#77 = PLANE ( 'NONE',  #75 ) ;
#78 = CARTESIAN_POINT ( 'NONE',  ( 1.316288464743861212E-13, -4.616918432785521081E-15, 37.69999999999999574 ) ) ;
#79 = COORDINATED_UNIVERSAL_TIME_OFFSET ( 1, 0, .AHEAD. ) ;
#80 = APPROVAL_DATE_TIME ( #177, #225 ) ;
#81 = EDGE_CURVE ( 'NONE', #126, #126, #212, .T. ) ;
#82 = APPROVAL_ROLE ( '' ) ;
#83 = COORDINATED_UNIVERSAL_TIME_OFFSET ( 1, 0, .AHEAD. ) ;
#84 = CARTESIAN_POINT ( 'NONE',  ( 6.284666409917636884E-15, -0.2999999999999999334, 1.799999999999999156 ) ) ;
#85 = APPROVAL_DATE_TIME ( #145, #183 ) ;
#86 = DIRECTION ( 'NONE',  ( 0.0000000000000000000, 0.0000000000000000000, 1.000000000000000000 ) ) ;
#87 = SHAPE_DEFINITION_REPRESENTATION ( #94, #166 ) ;
#88 = EDGE_LOOP ( 'NONE', ( #184 ) ) ;
#89 = CC_DESIGN_PERSON_AND_ORGANIZATION_ASSIGNMENT ( #44, #174, ( #181 ) ) ;
#90 = AXIS2_PLACEMENT_3D ( 'NONE', #190, #22, #20 ) ;
#91 = EDGE_LOOP ( 'NONE', ( #204 ) ) ;
#92 = ADVANCED_FACE ( 'NONE', ( #43, #40 ), #149, .T. ) ;
#93 = DIRECTION ( 'NONE',  ( 3.491481338843133355E-15, -1.219242935835426903E-16, 1.000000000000000000 ) ) ;
#94 = PRODUCT_DEFINITION_SHAPE ( 'NONE', 'NONE',  #70 ) ;
#95 = PRODUCT_RELATED_PRODUCT_CATEGORY ( 'detail', '', ( #36 ) ) ;
#96 = CARTESIAN_POINT ( 'NONE',  ( 6.284666409917638462E-15, -2.602085213965217051E-16, 1.799999999999999600 ) ) ;
#97 = DIRECTION ( 'NONE',  ( 0.0000000000000000000, -1.000000000000000000, 0.0000000000000000000 ) ) ;
#98 = FACE_BOUND ( 'NONE', #109, .T. ) ;
#99 = DIRECTION ( 'NONE',  ( 3.491481338843133355E-15, -1.219242935835426903E-16, 1.000000000000000000 ) ) ;
#100 = ADVANCED_FACE ( 'NONE', ( #194 ), #77, .F. ) ;
#101 = CIRCLE ( 'NONE', #90, 1.499999999999994671 ) ;
#102 = APPROVAL_ROLE ( '' ) ;
#103 = PERSON_AND_ORGANIZATION_ROLE ( 'design_owner' ) ;
#104 = MECHANICAL_CONTEXT ( 'NONE', #143, 'mechanical' ) ;
#105 = CC_DESIGN_APPROVAL ( #225, ( #70 ) ) ;
#106 = CARTESIAN_POINT ( 'NONE',  ( 0.0000000000000000000, 0.0000000000000000000, 0.0000000000000000000 ) ) ;
#107 = PERSON_AND_ORGANIZATION ( #243, #18 ) ;
#108 = FACE_OUTER_BOUND ( 'NONE', #223, .T. ) ;
#109 = EDGE_LOOP ( 'NONE', ( #188 ) ) ;
#110 = ORIENTED_EDGE ( 'NONE', *, *, #165, .F. ) ;
#111 = CC_DESIGN_PERSON_AND_ORGANIZATION_ASSIGNMENT ( #147, #103, ( #36 ) ) ;
#112 = DIRECTION ( 'NONE',  ( -3.491481338843133355E-15, 1.224646799147353207E-16, -1.000000000000000000 ) ) ;
#113 = DIRECTION ( 'NONE',  ( 3.491481338843133355E-15, -1.224646799147353207E-16, 1.000000000000000000 ) ) ;
#114 = DIRECTION ( 'NONE',  ( -4.318720456597940409E-31, -1.000000000000000000, -1.219242935835426903E-16 ) ) ;
#115 = DESIGN_CONTEXT ( 'detailed design', #217, 'design' ) ;
#116 = DIRECTION ( 'NONE',  ( 3.491481338843133355E-15, -1.219242935835426903E-16, 1.000000000000000000 ) ) ;
#117 = MANIFOLD_SOLID_BREP ( 'Corps-Déplacer/Copier1[2]', #57 ) ;
#118 = PERSON_AND_ORGANIZATION ( #243, #18 ) ;
#119 = DIRECTION ( 'NONE',  ( 3.491481338843133355E-15, -1.219242935835426903E-16, 1.000000000000000000 ) ) ;
#120 = DATE_TIME_ROLE ( 'classification_date' ) ;
#121 = APPROVAL_STATUS ( 'not_yet_approved' ) ;
#122 = LOCAL_TIME ( 11, 35, 28.00000000000000000, #142 ) ;
#123 = CARTESIAN_POINT ( 'NONE',  ( 1.326762908760390423E-13, 8.998558695971047118E-33, 38.00000000000000000 ) ) ;
#124 = MANIFOLD_SOLID_BREP ( 'Corps-Déplacer/Copier1[1]', #207 ) ;
#125 = SECURITY_CLASSIFICATION_LEVEL ( 'unclassified' ) ;
#126 = VERTEX_POINT ( 'NONE', #11 ) ;
#127 = LOCAL_TIME ( 11, 35, 28.00000000000000000, #79 ) ;
#128 = VERTEX_POINT ( 'NONE', #84 ) ;
#129 = EDGE_LOOP ( 'NONE', ( #55 ) ) ;
#130 = CC_DESIGN_DATE_AND_TIME_ASSIGNMENT ( #159, #66, ( #70 ) ) ;
#131 = EDGE_LOOP ( 'NONE', ( #242 ) ) ;
#132 = AXIS2_PLACEMENT_3D ( 'NONE', #4, #39, #193 ) ;
#133 = FACE_OUTER_BOUND ( 'NONE', #91, .T. ) ;
#134 = DIRECTION ( 'NONE',  ( -4.256963957985706261E-31, -1.000000000000000000, -1.219242935835426903E-16 ) ) ;
#135 = ADVANCED_FACE ( 'NONE', ( #98, #133 ), #2, .T. ) ;
#136 = DIRECTION ( 'NONE',  ( -4.275831445896958607E-31, -1.000000000000000000, -1.224646799147353207E-16 ) ) ;
#137 = DIRECTION ( 'NONE',  ( 0.0000000000000000000, -1.000000000000000000, 0.0000000000000000000 ) ) ;
#138 = UNCERTAINTY_MEASURE_WITH_UNIT (LENGTH_MEASURE( 1.000000000000000082E-05 ), #237, 'distance_accuracy_value', 'NONE');
#139 = FACE_OUTER_BOUND ( 'NONE', #224, .T. ) ;
#140 = CC_DESIGN_PERSON_AND_ORGANIZATION_ASSIGNMENT ( #146, #42, ( #161 ) ) ;
#141 = PERSON_AND_ORGANIZATION ( #243, #18 ) ;
#142 = COORDINATED_UNIVERSAL_TIME_OFFSET ( 1, 0, .AHEAD. ) ;
#143 = APPLICATION_CONTEXT ( 'configuration controlled 3d designs of mechanical parts and assemblies' ) ;
#144 = DIRECTION ( 'NONE',  ( 1.000000000000000000, 0.0000000000000000000, 0.0000000000000000000 ) ) ;
#145 = DATE_AND_TIME ( #160, #8 ) ;
#146 = PERSON_AND_ORGANIZATION ( #243, #18 ) ;
#147 = PERSON_AND_ORGANIZATION ( #243, #18 ) ;
#148 = CARTESIAN_POINT ( 'NONE',  ( 6.284666409917638462E-15, -2.602085213965217051E-16, 1.799999999999999600 ) ) ;
#149 = CONICAL_SURFACE ( 'NONE', #185, 1.199999999999995959, 0.7853981633974468357 ) ;
#150 =( GEOMETRIC_REPRESENTATION_CONTEXT ( 3 ) GLOBAL_UNCERTAINTY_ASSIGNED_CONTEXT ( ( #138 ) ) GLOBAL_UNIT_ASSIGNED_CONTEXT ( ( #237, #68, #164 ) ) REPRESENTATION_CONTEXT ( 'NONE', 'WORKASPACE' ) );
#151 = DIRECTION ( 'NONE',  ( 0.0000000000000000000, 1.000000000000000000, 0.0000000000000000000 ) ) ;
#152 = DIRECTION ( 'NONE',  ( 4.275831445896958607E-31, 1.000000000000000000, 1.224646799147352961E-16 ) ) ;
#153 = DIRECTION ( 'NONE',  ( 3.491481338843133355E-15, -1.219242935835426903E-16, 1.000000000000000000 ) ) ;
#154 = AXIS2_PLACEMENT_3D ( 'NONE', #227, #116, #210 ) ;
#155 = CARTESIAN_POINT ( 'NONE',  ( 1.326762908760390423E-13, -4.653657836759941941E-15, 38.00000000000000000 ) ) ;
#156 = CC_DESIGN_APPROVAL ( #183, ( #161 ) ) ;
#157 = EDGE_CURVE ( 'NONE', #48, #48, #67, .T. ) ;
#158 = CALENDAR_DATE ( 2021, 1, 11 ) ;
#159 = DATE_AND_TIME ( #7, #122 ) ;
#160 = CALENDAR_DATE ( 2021, 1, 11 ) ;
#161 = PRODUCT_DEFINITION_FORMATION_WITH_SPECIFIED_SOURCE ( 'ANY', '', #36, .NOT_KNOWN. ) ;
#162 = ADVANCED_FACE ( 'NONE', ( #232, #139 ), #29, .F. ) ;
#163 = DIRECTION ( 'NONE',  ( 4.275831445896958607E-31, 1.000000000000000000, 1.224646799147353207E-16 ) ) ;
#164 =( NAMED_UNIT ( * ) SI_UNIT ( $, .STERADIAN. ) SOLID_ANGLE_UNIT ( ) );
#165 = EDGE_CURVE ( 'NONE', #220, #220, #101, .T. ) ;
#166 = ADVANCED_BREP_SHAPE_REPRESENTATION ( '61842', ( #124, #117, #201 ), #150 ) ;
#167 = EDGE_LOOP ( 'NONE', ( #33 ) ) ;
#168 = LOCAL_TIME ( 11, 35, 28.00000000000000000, #65 ) ;
#169 = ORIENTED_EDGE ( 'NONE', *, *, #54, .F. ) ;
#170 = DIRECTION ( 'NONE',  ( -4.275831445896958607E-31, -1.000000000000000000, -1.224646799147353207E-16 ) ) ;
#171 = DIRECTION ( 'NONE',  ( 3.491481338843133355E-15, -1.224646799147353207E-16, 1.000000000000000000 ) ) ;
#172 = CARTESIAN_POINT ( 'NONE',  ( 6.284666409917636884E-15, -2.194637284503767143E-16, 1.799999999999999156 ) ) ;
#173 = FACE_OUTER_BOUND ( 'NONE', #31, .T. ) ;
#174 = PERSON_AND_ORGANIZATION_ROLE ( 'classification_officer' ) ;
#175 = FACE_OUTER_BOUND ( 'NONE', #52, .T. ) ;
#176 = AXIS2_PLACEMENT_3D ( 'NONE', #195, #99, #134 ) ;
#177 = DATE_AND_TIME ( #234, #189 ) ;
#178 = EDGE_CURVE ( 'NONE', #47, #47, #192, .T. ) ;
#179 = DIRECTION ( 'NONE',  ( -3.491481338843133355E-15, 1.224646799147353207E-16, -1.000000000000000000 ) ) ;
#180 = AXIS2_PLACEMENT_3D ( 'NONE', #78, #191, #38 ) ;
#181 = SECURITY_CLASSIFICATION ( '', '', #125 ) ;
#182 = PLANE ( 'NONE',  #186 ) ;
#183 = APPROVAL ( #236, 'UNSPECIFIED' ) ;
#184 = ORIENTED_EDGE ( 'NONE', *, *, #178, .F. ) ;
#185 = AXIS2_PLACEMENT_3D ( 'NONE', #155, #112, #151 ) ;
#186 = AXIS2_PLACEMENT_3D ( 'NONE', #123, #179, #163 ) ;
#187 = ORIENTED_EDGE ( 'NONE', *, *, #157, .F. ) ;
#188 = ORIENTED_EDGE ( 'NONE', *, *, #81, .T. ) ;
#189 = LOCAL_TIME ( 11, 35, 28.00000000000000000, #30 ) ;
#190 = CARTESIAN_POINT ( 'NONE',  ( 2.284045378728433285E-14, -7.976001939809625461E-16, 6.541765964257533206 ) ) ;
#191 = DIRECTION ( 'NONE',  ( -3.491481338843133355E-15, 1.224646799147353207E-16, -1.000000000000000000 ) ) ;
#192 = CIRCLE ( 'NONE', #176, 0.2999999999999999334 ) ;
#193 = DIRECTION ( 'NONE',  ( 0.0000000000000000000, 1.000000000000000000, 0.0000000000000000000 ) ) ;
#194 = FACE_OUTER_BOUND ( 'NONE', #88, .T. ) ;
#195 = CARTESIAN_POINT ( 'NONE',  ( -2.479419726329981793E-30, 8.658259039415295857E-32, -7.101340335822938194E-16 ) ) ;
#196 = PERSON_AND_ORGANIZATION_ROLE ( 'design_supplier' ) ;
#197 = CIRCLE ( 'NONE', #132, 1.199999999999995959 ) ;
#198 = APPROVAL_ROLE ( '' ) ;
#199 = CC_DESIGN_PERSON_AND_ORGANIZATION_ASSIGNMENT ( #118, #196, ( #161 ) ) ;
#200 = CARTESIAN_POINT ( 'NONE',  ( -2.607128645069553051E-30, -0.2999999999999999334, -7.467113216573566462E-16 ) ) ;
#201 = AXIS2_PLACEMENT_3D ( 'NONE', #106, #86, #144 ) ;
#202 = APPROVAL ( #26, 'UNSPECIFIED' ) ;
#203 = EDGE_LOOP ( 'NONE', ( #169 ) ) ;
#204 = ORIENTED_EDGE ( 'NONE', *, *, #165, .T. ) ;
#205 = EDGE_LOOP ( 'NONE', ( #187 ) ) ;
#206 = ORIENTED_EDGE ( 'NONE', *, *, #157, .T. ) ;
#207 = CLOSED_SHELL ( 'NONE', ( #13, #92, #239, #135, #162, #215 ) ) ;
#208 = APPROVAL_PERSON_ORGANIZATION ( #46, #183, #198 ) ;
#209 = CARTESIAN_POINT ( 'NONE',  ( 3.587083953752586696E-14, -1.252627852311700278E-15, 10.27381677182651032 ) ) ;
#210 = DIRECTION ( 'NONE',  ( 0.0000000000000000000, -1.000000000000000000, 0.0000000000000000000 ) ) ;
#211 = DIRECTION ( 'NONE',  ( -4.256963957985708889E-31, -1.000000000000000000, -1.219242935835426903E-16 ) ) ;
#212 = CIRCLE ( 'NONE', #49, 0.3681483474218597562 ) ;
#213 = AXIS2_PLACEMENT_3D ( 'NONE', #148, #113, #170 ) ;
#214 = FACE_OUTER_BOUND ( 'NONE', #19, .T. ) ;
#215 = ADVANCED_FACE ( 'NONE', ( #175 ), #73, .F. ) ;
#216 = CARTESIAN_POINT ( 'NONE',  ( 1.316288464743861212E-13, 1.499999999999992228, 37.69999999999999574 ) ) ;
#217 = APPLICATION_CONTEXT ( 'configuration controlled 3d designs of mechanical parts and assemblies' ) ;
#218 = CIRCLE ( 'NONE', #14, 0.2999999999999997113 ) ;
#219 = CC_DESIGN_PERSON_AND_ORGANIZATION_ASSIGNMENT ( #107, #64, ( #70 ) ) ;
#220 = VERTEX_POINT ( 'NONE', #6 ) ;
#221 = VERTEX_POINT ( 'NONE', #222 ) ;
#222 = CARTESIAN_POINT ( 'NONE',  ( 6.284666409917636884E-15, -0.2999999999999999334, 1.799999999999999156 ) ) ;
#223 = EDGE_LOOP ( 'NONE', ( #241 ) ) ;
#224 = EDGE_LOOP ( 'NONE', ( #17 ) ) ;
#225 = APPROVAL ( #121, 'UNSPECIFIED' ) ;
#226 = CYLINDRICAL_SURFACE ( 'NONE', #235, 0.2999999999999998224 ) ;
#227 = CARTESIAN_POINT ( 'NONE',  ( 6.284666409917636884E-15, -2.194637284503767143E-16, 1.799999999999999156 ) ) ;
#228 = ADVANCED_FACE ( 'NONE', ( #1 ), #21, .T. ) ;
#229 = CYLINDRICAL_SURFACE ( 'NONE', #238, 1.499999999999994671 ) ;
#230 = CIRCLE ( 'NONE', #154, 0.2999999999999997113 ) ;
#231 = APPROVAL_PERSON_ORGANIZATION ( #28, #225, #82 ) ;
#232 = FACE_OUTER_BOUND ( 'NONE', #129, .T. ) ;
#233 = DATE_AND_TIME ( #158, #127 ) ;
#234 = CALENDAR_DATE ( 2021, 1, 11 ) ;
#235 = AXIS2_PLACEMENT_3D ( 'NONE', #41, #153, #211 ) ;
#236 = APPROVAL_STATUS ( 'not_yet_approved' ) ;
#237 =( LENGTH_UNIT ( ) NAMED_UNIT ( * ) SI_UNIT ( .MILLI., .METRE. ) );
#238 = AXIS2_PLACEMENT_3D ( 'NONE', #74, #60, #152 ) ;
#239 = ADVANCED_FACE ( 'NONE', ( #76 ), #182, .F. ) ;
#240 = DATE_AND_TIME ( #16, #168 ) ;
#241 = ORIENTED_EDGE ( 'NONE', *, *, #178, .T. ) ;
#242 = ORIENTED_EDGE ( 'NONE', *, *, #37, .F. ) ;
#243 = PERSON ( 'UNSPECIFIED', 'UNSPECIFIED', 'UNSPECIFIED', ('UNSPECIFIED'), ('UNSPECIFIED'), ('UNSPECIFIED') ) ;
ENDSEC;
END-ISO-10303-21;
